  0
SECTION
  2
HEADER
  9
$ACADVER
  1
AC1009
  9
$DWGCODEPAGE
  3
dos932
  9
$EXTMIN
 10
0.0
 20
0.0
 30
0.0
  9
$EXTMAX
 10
424.802
 20
304.201
 30
0.0
  9
$LIMMIN
 10
0.0
 20
0.0
  9
$LIMMAX
 10
424.802
 20
304.201
  9
$LTSCALE
 40
1.0
  9
$PDMODE
 70
     0
  0
ENDSEC
  0
SECTION
  2
TABLES
  0
TABLE
  2
VPORT
 70
     1
  0
VPORT
  2
*ACTIVE
 70
     0
 10
0.0
 20
0.0
 11
1.0
 21
1.0
 12
212.401
 22
152.1005
 13
0.0
 23
0.0
 14
10.0
 24
10.0
 15
10.0
 25
10.0
 16
0.0
 26
0.0
 36
1.0
 17
0.0
 27
0.0
 37
0.0
 40
424.802
 41
1.396451688
 42
50.0
 43
0.0
 44
0.0
 50
0.0
 51
0.0
 71
     0
 72
  1000
 73
     1
 74
     3
 75
     0
 76
     0
 77
     0
 78
     0
  0
ENDTAB
  0
TABLE
  2
LTYPE
 70
     3
  0
LTYPE
  2
CONTINUOUS
 70
    64
  3
Solid line
 72
    65
 73
     0
 40
0.0
  0
LTYPE
  2
LTYPE1
 70
    64
  3
CENTER
 72
    65
 73
     4
 40
40.0
 49
28.0
 49
-4.0
 49
4.0
 49
-4.0
  0
LTYPE
  2
LTYPE2
 70
    64
  3
CENTER
 72
    65
 73
     4
 40
10.0
 49
7.0
 49
-1.0
 49
1.0
 49
-1.0
  0
ENDTAB
  0
TABLE
  2
LAYER
 70
   128
  0
LAYER
  2
0
 70
     0
 62
     7
  6
CONTINUOUS
  0
LAYER
  2
011
 70
     0
 62
     7
  6
CONTINUOUS
  0
LAYER
  2
012
 70
     0
 62
     7
  6
CONTINUOUS
  0
LAYER
  2
0110
 70
     0
 62
     7
  6
CONTINUOUS
  0
LAYER
  2
011023
 70
     0
 62
     7
  6
CONTINUOUS
  0
LAYER
  2
EWAKU0
 70
     0
 62
     7
  6
CONTINUOUS
  0
LAYER
  2
EWAKU1023
 70
     0
 62
     7
  6
CONTINUOUS
  0
LAYER
  2
020
 70
     0
 62
     7
  6
CONTINUOUS
  0
LAYER
  2
021023
 70
     0
 62
     7
  6
CONTINUOUS
  0
LAYER
  2
0
 70
     0
 62
     7
  6
CONTINUOUS
  0
LAYER
  2
11
 70
     0
 62
     7
  6
CONTINUOUS
  0
LAYER
  2
12
 70
     0
 62
     7
  6
CONTINUOUS
  0
LAYER
  2
13
 70
     0
 62
     7
  6
CONTINUOUS
  0
LAYER
  2
14
 70
     0
 62
     7
  6
CONTINUOUS
  0
LAYER
  2
15
 70
     0
 62
     7
  6
CONTINUOUS
  0
LAYER
  2
16
 70
     0
 62
     7
  6
CONTINUOUS
  0
LAYER
  2
17
 70
     0
 62
     7
  6
CONTINUOUS
  0
LAYER
  2
18
 70
     0
 62
     7
  6
CONTINUOUS
  0
LAYER
  2
19
 70
     0
 62
     7
  6
CONTINUOUS
  0
LAYER
  2
20
 70
     0
 62
     7
  6
CONTINUOUS
  0
LAYER
  2
21
 70
     0
 62
     7
  6
CONTINUOUS
  0
LAYER
  2
22
 70
     0
 62
     7
  6
CONTINUOUS
  0
LAYER
  2
23
 70
     0
 62
     7
  6
CONTINUOUS
  0
LAYER
  2
24
 70
     0
 62
     7
  6
CONTINUOUS
  0
LAYER
  2
25
 70
     0
 62
     7
  6
CONTINUOUS
  0
LAYER
  2
26
 70
     0
 62
     7
  6
CONTINUOUS
  0
LAYER
  2
27
 70
     0
 62
     7
  6
CONTINUOUS
  0
LAYER
  2
28
 70
     0
 62
     7
  6
CONTINUOUS
  0
LAYER
  2
29
 70
     0
 62
     7
  6
CONTINUOUS
  0
LAYER
  2
30
 70
     0
 62
     7
  6
CONTINUOUS
  0
LAYER
  2
31
 70
     0
 62
     7
  6
CONTINUOUS
  0
LAYER
  2
32
 70
     0
 62
     7
  6
CONTINUOUS
  0
LAYER
  2
33
 70
     0
 62
     7
  6
CONTINUOUS
  0
LAYER
  2
34
 70
     0
 62
     7
  6
CONTINUOUS
  0
LAYER
  2
35
 70
     0
 62
     7
  6
CONTINUOUS
  0
LAYER
  2
36
 70
     0
 62
     7
  6
CONTINUOUS
  0
LAYER
  2
37
 70
     0
 62
     7
  6
CONTINUOUS
  0
LAYER
  2
38
 70
     0
 62
     7
  6
CONTINUOUS
  0
LAYER
  2
39
 70
     0
 62
     7
  6
CONTINUOUS
  0
LAYER
  2
40
 70
     0
 62
     7
  6
CONTINUOUS
  0
LAYER
  2
41
 70
     0
 62
     7
  6
CONTINUOUS
  0
LAYER
  2
42
 70
     0
 62
     7
  6
CONTINUOUS
  0
LAYER
  2
43
 70
     0
 62
     7
  6
CONTINUOUS
  0
LAYER
  2
44
 70
     0
 62
     7
  6
CONTINUOUS
  0
LAYER
  2
45
 70
     0
 62
     7
  6
CONTINUOUS
  0
LAYER
  2
46
 70
     0
 62
     7
  6
CONTINUOUS
  0
LAYER
  2
47
 70
     0
 62
     7
  6
CONTINUOUS
  0
LAYER
  2
48
 70
     0
 62
     7
  6
CONTINUOUS
  0
LAYER
  2
49
 70
     0
 62
     7
  6
CONTINUOUS
  0
LAYER
  2
50
 70
     0
 62
     7
  6
CONTINUOUS
  0
LAYER
  2
51
 70
     0
 62
     7
  6
CONTINUOUS
  0
LAYER
  2
52
 70
     0
 62
     7
  6
CONTINUOUS
  0
LAYER
  2
53
 70
     0
 62
     7
  6
CONTINUOUS
  0
LAYER
  2
54
 70
     0
 62
     7
  6
CONTINUOUS
  0
LAYER
  2
55
 70
     0
 62
     7
  6
CONTINUOUS
  0
LAYER
  2
56
 70
     0
 62
     7
  6
CONTINUOUS
  0
LAYER
  2
57
 70
     0
 62
     7
  6
CONTINUOUS
  0
LAYER
  2
58
 70
     0
 62
     7
  6
CONTINUOUS
  0
LAYER
  2
59
 70
     0
 62
     7
  6
CONTINUOUS
  0
LAYER
  2
60
 70
     0
 62
     7
  6
CONTINUOUS
  0
LAYER
  2
61
 70
     0
 62
     7
  6
CONTINUOUS
  0
LAYER
  2
62
 70
     0
 62
     7
  6
CONTINUOUS
  0
LAYER
  2
63
 70
     0
 62
     7
  6
CONTINUOUS
  0
LAYER
  2
64
 70
     0
 62
     7
  6
CONTINUOUS
  0
LAYER
  2
65
 70
     0
 62
     7
  6
CONTINUOUS
  0
LAYER
  2
66
 70
     0
 62
     7
  6
CONTINUOUS
  0
LAYER
  2
67
 70
     0
 62
     7
  6
CONTINUOUS
  0
LAYER
  2
68
 70
     0
 62
     7
  6
CONTINUOUS
  0
LAYER
  2
69
 70
     0
 62
     7
  6
CONTINUOUS
  0
LAYER
  2
70
 70
     0
 62
     7
  6
CONTINUOUS
  0
LAYER
  2
71
 70
     0
 62
     7
  6
CONTINUOUS
  0
LAYER
  2
72
 70
     0
 62
     7
  6
CONTINUOUS
  0
LAYER
  2
73
 70
     0
 62
     7
  6
CONTINUOUS
  0
LAYER
  2
74
 70
     0
 62
     7
  6
CONTINUOUS
  0
LAYER
  2
75
 70
     0
 62
     7
  6
CONTINUOUS
  0
LAYER
  2
76
 70
     0
 62
     7
  6
CONTINUOUS
  0
LAYER
  2
77
 70
     0
 62
     7
  6
CONTINUOUS
  0
LAYER
  2
78
 70
     0
 62
     7
  6
CONTINUOUS
  0
LAYER
  2
79
 70
     0
 62
     7
  6
CONTINUOUS
  0
LAYER
  2
80
 70
     0
 62
     7
  6
CONTINUOUS
  0
LAYER
  2
81
 70
     0
 62
     7
  6
CONTINUOUS
  0
LAYER
  2
82
 70
     0
 62
     7
  6
CONTINUOUS
  0
LAYER
  2
83
 70
     0
 62
     7
  6
CONTINUOUS
  0
LAYER
  2
84
 70
     0
 62
     7
  6
CONTINUOUS
  0
LAYER
  2
85
 70
     0
 62
     7
  6
CONTINUOUS
  0
LAYER
  2
86
 70
     0
 62
     7
  6
CONTINUOUS
  0
LAYER
  2
87
 70
     0
 62
     7
  6
CONTINUOUS
  0
LAYER
  2
88
 70
     0
 62
     7
  6
CONTINUOUS
  0
LAYER
  2
89
 70
     0
 62
     7
  6
CONTINUOUS
  0
LAYER
  2
90
 70
     0
 62
     7
  6
CONTINUOUS
  0
LAYER
  2
91
 70
     0
 62
     7
  6
CONTINUOUS
  0
LAYER
  2
92
 70
     0
 62
     7
  6
CONTINUOUS
  0
LAYER
  2
93
 70
     0
 62
     7
  6
CONTINUOUS
  0
LAYER
  2
94
 70
     0
 62
     7
  6
CONTINUOUS
  0
LAYER
  2
95
 70
     0
 62
     7
  6
CONTINUOUS
  0
LAYER
  2
96
 70
     0
 62
     7
  6
CONTINUOUS
  0
LAYER
  2
97
 70
     0
 62
     7
  6
CONTINUOUS
  0
LAYER
  2
98
 70
     0
 62
     7
  6
CONTINUOUS
  0
LAYER
  2
99
 70
     0
 62
     7
  6
CONTINUOUS
  0
LAYER
  2
100
 70
     0
 62
     7
  6
CONTINUOUS
  0
LAYER
  2
101
 70
     0
 62
     7
  6
CONTINUOUS
  0
LAYER
  2
102
 70
     0
 62
     7
  6
CONTINUOUS
  0
LAYER
  2
103
 70
     0
 62
     7
  6
CONTINUOUS
  0
LAYER
  2
104
 70
     0
 62
     7
  6
CONTINUOUS
  0
LAYER
  2
105
 70
     0
 62
     7
  6
CONTINUOUS
  0
LAYER
  2
106
 70
     0
 62
     7
  6
CONTINUOUS
  0
LAYER
  2
107
 70
     0
 62
     7
  6
CONTINUOUS
  0
LAYER
  2
108
 70
     0
 62
     7
  6
CONTINUOUS
  0
LAYER
  2
109
 70
     0
 62
     7
  6
CONTINUOUS
  0
LAYER
  2
110
 70
     0
 62
     7
  6
CONTINUOUS
  0
LAYER
  2
111
 70
     0
 62
     7
  6
CONTINUOUS
  0
LAYER
  2
112
 70
     0
 62
     7
  6
CONTINUOUS
  0
LAYER
  2
113
 70
     0
 62
     7
  6
CONTINUOUS
  0
LAYER
  2
114
 70
     0
 62
     7
  6
CONTINUOUS
  0
LAYER
  2
115
 70
     0
 62
     7
  6
CONTINUOUS
  0
LAYER
  2
116
 70
     0
 62
     7
  6
CONTINUOUS
  0
LAYER
  2
117
 70
     0
 62
     7
  6
CONTINUOUS
  0
LAYER
  2
118
 70
     0
 62
     7
  6
CONTINUOUS
  0
LAYER
  2
119
 70
     0
 62
     7
  6
CONTINUOUS
  0
LAYER
  2
120
 70
     0
 62
     7
  6
CONTINUOUS
  0
LAYER
  2
121
 70
     0
 62
     7
  6
CONTINUOUS
  0
LAYER
  2
122
 70
     0
 62
     7
  6
CONTINUOUS
  0
LAYER
  2
123
 70
     0
 62
     7
  6
CONTINUOUS
  0
LAYER
  2
124
 70
     0
 62
     7
  6
CONTINUOUS
  0
LAYER
  2
125
 70
     0
 62
     7
  6
CONTINUOUS
  0
LAYER
  2
126
 70
     0
 62
     7
  6
CONTINUOUS
  0
LAYER
  2
127
 70
     0
 62
     7
  6
CONTINUOUS
  0
LAYER
  2
128
 70
     0
 62
     7
  6
CONTINUOUS
  0
ENDTAB
  0
TABLE
  2
STYLE
 70
    10
  0
STYLE
  2
STANDARD
 70
     0
 40
0.0
 41
1.0
 50
0.0
 71
     0
 42
0.2
  3
txt.shx
  4
extfont.shx
  0
STYLE
  2
KANJI0
 70
     0
 40
3.099999905
 41
1.0
 50
0.0
 71
     0
 42
3.099999905
  3
txt.shx
  4
extfont.shx
  0
STYLE
  2
KANJI1
 70
     0
 40
1.859999943
 41
1.0
 50
0.0
 71
     0
 42
1.859999943
  3
txt.shx
  4
extfont.shx
  0
STYLE
  2
KANJI2
 70
     0
 40
1.75
 41
1.0
 50
0.0
 71
     0
 42
1.75
  3
txt.shx
  4
extfont.shx
  0
STYLE
  2
KANJI3
 70
     0
 40
1.399999976
 41
1.0
 50
0.0
 71
     0
 42
1.399999976
  3
txt.shx
  4
extfont.shx
  0
STYLE
  2
KANJI4
 70
     0
 40
1.7
 41
0.941176471
 50
0.0
 71
     0
 42
1.7
  3
txt.shx
  4
extfont.shx
  0
STYLE
  2
KANJI5
 70
     0
 40
5.0
 41
1.0
 50
0.0
 71
     0
 42
5.0
  3
txt.shx
  4
extfont.shx
  0
STYLE
  2
KANJI6
 70
     0
 40
1.7
 41
0.705882353
 50
0.0
 71
     0
 42
1.7
  3
txt.shx
  4
extfont.shx
  0
STYLE
  2
KANJI7
 70
     0
 40
1.7
 41
0.823529412
 50
0.0
 71
     0
 42
1.7
  3
txt.shx
  4
extfont.shx
  0
STYLE
  2
KANJI8
 70
     0
 40
1.7
 41
0.941176471
 50
0.0
 71
     0
 42
1.7
  3
txt.shx
  4
extfont.shx
  0
ENDTAB
  0
TABLE
  2
VIEW
 70
     0
  0
ENDTAB
  0
ENDSEC
  0
SECTION
  2
BLOCKS
  0
ENDSEC
  0
SECTION
  2
ENTITIES
  0
TEXT
  8
0
  6
CONTINUOUS
 62
    12
 10
198.660720278
 20
199.461192437
 30
0.0
 40
3.099999905
  1
（パネル厚さ）
 50
0.0
 41
1.0
 51
0.0
  7
KANJI0
  0
LINE
  8
0
  6
CONTINUOUS
 62
     3
 10
57.373992331
 20
225.865854401
 30
0.0
 11
130.623995585
 21
225.865854401
 31
0.0
  0
LINE
  8
0
  6
CONTINUOUS
 62
     3
 10
57.373992331
 20
153.865854401
 30
0.0
 11
130.623995585
 21
153.865854401
 31
0.0
  0
ARC
  8
0
  6
CONTINUOUS
 62
     3
 10
94.623995585
 20
227.065856451
 30
0.0
 40
0.8
 50
0.0
 51
180.0
  0
LINE
  8
0
  6
CONTINUOUS
 62
     3
 10
95.423995585
 20
227.065856451
 30
0.0
 11
95.423995585
 21
225.865854401
 31
0.0
  0
LINE
  8
0
  6
CONTINUOUS
 62
     3
 10
93.823995585
 20
227.065856451
 30
0.0
 11
93.823995585
 21
225.865854401
 31
0.0
  0
CIRCLE
  8
0
  6
CONTINUOUS
 62
     3
 10
94.623995585
 20
227.065856451
 30
0.0
 40
0.75
  0
LINE
  8
0
  6
CONTINUOUS
 62
     3
 10
87.873995585
 20
229.065856451
 30
0.0
 11
87.873995585
 21
225.865854401
 31
0.0
  0
LINE
  8
0
  6
CONTINUOUS
 62
     3
 10
97.123995585
 20
229.065856451
 30
0.0
 11
97.123995585
 21
225.865854401
 31
0.0
  0
LINE
  8
0
  6
CONTINUOUS
 62
     3
 10
92.123995585
 20
229.065856451
 30
0.0
 11
92.123995585
 21
225.865854401
 31
0.0
  0
LINE
  8
0
  6
CONTINUOUS
 62
     3
 10
101.373995585
 20
229.065856451
 30
0.0
 11
87.873995585
 21
229.065856451
 31
0.0
  0
LINE
  8
0
  6
CONTINUOUS
 62
     3
 10
101.373995585
 20
229.065856451
 30
0.0
 11
101.373995585
 21
225.865854401
 31
0.0
  0
ARC
  8
0
  6
CONTINUOUS
 62
     3
 10
94.623995585
 20
152.66585235
 30
0.0
 40
0.8
 50
180.0
 51
0.0
  0
LINE
  8
0
  6
CONTINUOUS
 62
     3
 10
95.423995585
 20
152.66585235
 30
0.0
 11
95.423995585
 21
153.865854401
 31
0.0
  0
LINE
  8
0
  6
CONTINUOUS
 62
     3
 10
93.823995585
 20
152.66585235
 30
0.0
 11
93.823995585
 21
153.865854401
 31
0.0
  0
CIRCLE
  8
0
  6
CONTINUOUS
 62
     3
 10
94.623995585
 20
152.66585235
 30
0.0
 40
0.75
  0
LINE
  8
0
  6
CONTINUOUS
 62
     3
 10
87.873995585
 20
150.66585235
 30
0.0
 11
87.873995585
 21
153.865854401
 31
0.0
  0
LINE
  8
0
  6
CONTINUOUS
 62
     3
 10
97.123995585
 20
150.66585235
 30
0.0
 11
97.123995585
 21
153.865854401
 31
0.0
  0
LINE
  8
0
  6
CONTINUOUS
 62
     3
 10
92.123995585
 20
150.66585235
 30
0.0
 11
92.123995585
 21
153.865854401
 31
0.0
  0
LINE
  8
0
  6
CONTINUOUS
 62
     3
 10
101.373995585
 20
150.66585235
 30
0.0
 11
87.873995585
 21
150.66585235
 31
0.0
  0
LINE
  8
0
  6
CONTINUOUS
 62
     3
 10
101.373995585
 20
150.66585235
 30
0.0
 11
101.373995585
 21
153.865854401
 31
0.0
  0
LINE
  8
0
  6
CONTINUOUS
 62
     3
 10
57.373992331
 20
225.865854401
 30
0.0
 11
57.373992331
 21
153.865854401
 31
0.0
  0
LINE
  8
0
  6
CONTINUOUS
 62
     4
 10
129.074007029
 20
221.865854401
 30
0.0
 11
129.074007029
 21
199.965857061
 31
0.0
  0
LINE
  8
0
  6
CONTINUOUS
 62
     3
 10
132.374007029
 20
195.915854401
 30
0.0
 11
130.624007029
 21
195.915854401
 31
0.0
  0
LINE
  8
0
  6
CONTINUOUS
 62
     3
 10
132.374007029
 20
184.065854401
 30
0.0
 11
130.624007029
 21
184.065854401
 31
0.0
  0
LINE
  8
0
  6
CONTINUOUS
 62
     3
 10
132.374007029
 20
193.915854401
 30
0.0
 11
130.624007029
 21
193.915854401
 31
0.0
  0
LINE
  8
0
  6
CONTINUOUS
 62
     3
 10
132.374007029
 20
185.815854401
 30
0.0
 11
130.624007029
 21
185.815854401
 31
0.0
  0
LINE
  8
0
  6
CONTINUOUS
 62
     3
 10
132.374007029
 20
185.815854401
 30
0.0
 11
132.374007029
 21
184.065854401
 31
0.0
  0
LINE
  8
0
  6
CONTINUOUS
 62
     3
 10
132.374007029
 20
195.915854401
 30
0.0
 11
132.374007029
 21
193.915854401
 31
0.0
  0
LINE
  8
0
  6
CONTINUOUS
 62
     3
 10
132.024007029
 20
193.365854401
 30
0.0
 11
132.024007029
 21
186.365854401
 31
0.0
  0
LINE
  8
0
  6
CONTINUOUS
 62
     3
 10
131.749007029
 20
186.365854401
 30
0.0
 11
131.749007029
 21
185.815854401
 31
0.0
  0
LINE
  8
0
  6
CONTINUOUS
 62
     3
 10
131.749007029
 20
193.915854401
 30
0.0
 11
131.749007029
 21
193.365854401
 31
0.0
  0
LINE
  8
0
  6
CONTINUOUS
 62
     3
 10
179.351792081
 20
225.865857655
 30
0.0
 11
191.851792081
 21
225.865857655
 31
0.0
  0
LINE
  8
0
  6
CONTINUOUS
 62
     3
 10
179.351792081
 20
153.865854401
 30
0.0
 11
191.851792081
 21
153.865854401
 31
0.0
  0
LINE
  8
0
  6
CONTINUOUS
 62
     3
 10
191.851792081
 20
153.865854401
 30
0.0
 11
191.851792081
 21
225.865857655
 31
0.0
  0
LINE
  8
0
  6
CONTINUOUS
 62
     3
 10
191.851792081
 20
224.065857053
 30
0.0
 11
259.101792081
 21
224.065857053
 31
0.0
  0
LINE
  8
0
  6
CONTINUOUS
 62
     3
 10
191.851792081
 20
155.665855003
 30
0.0
 11
259.101792081
 21
155.665855003
 31
0.0
  0
LINE
  8
0
  6
CONTINUOUS
 62
     3
 10
179.351792081
 20
224.615854401
 30
0.0
 11
179.351792081
 21
225.865857655
 31
0.0
  0
LINE
  8
0
  6
CONTINUOUS
 62
     3
 10
179.351792081
 20
153.865854401
 30
0.0
 11
179.351792081
 21
155.115854401
 31
0.0
  0
LINE
  8
0
  6
CONTINUOUS
 62
     3
 10
179.351792081
 20
154.865855003
 30
0.0
 11
179.351792081
 21
224.665855003
 31
0.0
  0
LINE
  8
0
  6
LTYPE1
 62
     4
 10
254.058931919
 20
189.865855003
 30
0.0
 11
268.156974444
 21
189.865855003
 31
0.0
  0
LINE
  8
0
  6
CONTINUOUS
 62
     3
 10
199.101792081
 20
229.065857053
 30
0.0
 11
199.101792081
 21
224.065857053
 31
0.0
  0
LINE
  8
0
  6
CONTINUOUS
 62
     3
 10
199.101792081
 20
229.065857053
 30
0.0
 11
245.601792081
 21
229.065857053
 31
0.0
  0
LINE
  8
0
  6
CONTINUOUS
 62
     3
 10
199.101792081
 20
225.065857053
 30
0.0
 11
251.601792081
 21
225.065857053
 31
0.0
  0
LINE
  8
0
  6
CONTINUOUS
 62
     3
 10
248.101792081
 20
224.065857053
 30
0.0
 11
248.101792081
 21
226.565857053
 31
0.0
  0
LINE
  8
0
  6
CONTINUOUS
 62
     3
 10
251.601792081
 20
225.065857053
 30
0.0
 11
251.601792081
 21
224.065857053
 31
0.0
  0
LINE
  8
0
  6
CONTINUOUS
 62
     3
 10
245.601792081
 20
229.065857053
 30
0.0
 11
248.101792081
 21
226.565857053
 31
0.0
  0
LINE
  8
0
  6
CONTINUOUS
 62
     3
 10
199.101792081
 20
224.065857053
 30
0.0
 11
246.351792081
 21
224.065857053
 31
0.0
  0
LINE
  8
0
  6
CONTINUOUS
 62
     3
 10
248.101792081
 20
224.065857053
 30
0.0
 11
251.601792081
 21
224.065857053
 31
0.0
  0
LINE
  8
0
  6
CONTINUOUS
 62
     3
 10
196.851792081
 20
226.315857053
 30
0.0
 11
199.101792081
 21
226.315857053
 31
0.0
  0
LINE
  8
0
  6
CONTINUOUS
 62
     3
 10
196.851792081
 20
227.815857053
 30
0.0
 11
199.101792081
 21
227.815857053
 31
0.0
  0
LINE
  8
0
  6
CONTINUOUS
 62
     3
 10
199.101792081
 20
150.665852952
 30
0.0
 11
199.101792081
 21
155.665852952
 31
0.0
  0
LINE
  8
0
  6
CONTINUOUS
 62
     3
 10
199.101792081
 20
150.665852952
 30
0.0
 11
245.601792081
 21
150.665852952
 31
0.0
  0
LINE
  8
0
  6
CONTINUOUS
 62
     3
 10
199.101792081
 20
154.665852952
 30
0.0
 11
251.601792081
 21
154.665852952
 31
0.0
  0
LINE
  8
0
  6
CONTINUOUS
 62
     3
 10
248.101792081
 20
155.665855003
 30
0.0
 11
248.101792081
 21
153.165852952
 31
0.0
  0
LINE
  8
0
  6
CONTINUOUS
 62
     3
 10
233.101792081
 20
154.665852952
 30
0.0
 11
233.101792081
 21
150.665852952
 31
0.0
  0
LINE
  8
0
  6
CONTINUOUS
 62
     3
 10
251.601792081
 20
154.665852952
 30
0.0
 11
251.601792081
 21
155.665852952
 31
0.0
  0
LINE
  8
0
  6
CONTINUOUS
 62
     3
 10
245.601792081
 20
150.665852952
 30
0.0
 11
248.101792081
 21
153.165852952
 31
0.0
  0
LINE
  8
0
  6
CONTINUOUS
 62
     3
 10
199.101792081
 20
155.665852952
 30
0.0
 11
246.351792081
 21
155.665852952
 31
0.0
  0
LINE
  8
0
  6
CONTINUOUS
 62
     3
 10
248.101792081
 20
155.665852952
 30
0.0
 11
251.601792081
 21
155.665852952
 31
0.0
  0
LINE
  8
0
  6
CONTINUOUS
 62
     3
 10
196.851792081
 20
226.315857053
 30
0.0
 11
196.851792081
 21
227.815857053
 31
0.0
  0
LINE
  8
0
  6
CONTINUOUS
 62
     3
 10
196.851792081
 20
153.415852952
 30
0.0
 11
199.101792081
 21
153.415852952
 31
0.0
  0
LINE
  8
0
  6
CONTINUOUS
 62
     3
 10
196.851792081
 20
151.915852952
 30
0.0
 11
199.101792081
 21
151.915852952
 31
0.0
  0
LINE
  8
0
  6
CONTINUOUS
 62
     3
 10
196.851792081
 20
153.415852952
 30
0.0
 11
196.851792081
 21
151.915852952
 31
0.0
  0
LINE
  8
0
  6
CONTINUOUS
 62
     3
 10
333.472676996
 20
228.915874917
 30
0.0
 11
346.972676996
 21
228.915874917
 31
0.0
  0
LINE
  8
0
  6
CONTINUOUS
 62
     3
 10
333.472676996
 20
228.915874917
 30
0.0
 11
333.472676996
 21
224.915874917
 31
0.0
  0
LINE
  8
0
  6
CONTINUOUS
 62
     3
 10
346.972676996
 20
228.915874917
 30
0.0
 11
346.972676996
 21
224.915874917
 31
0.0
  0
LINE
  8
0
  6
CONTINUOUS
 62
     3
 10
346.972683505
 20
150.815854401
 30
0.0
 11
333.472683505
 21
150.815854401
 31
0.0
  0
LINE
  8
0
  6
CONTINUOUS
 62
     3
 10
346.972683505
 20
150.815854401
 30
0.0
 11
346.972683505
 21
154.815854401
 31
0.0
  0
LINE
  8
0
  6
CONTINUOUS
 62
     3
 10
333.472683505
 20
150.815854401
 30
0.0
 11
333.472683505
 21
154.815854401
 31
0.0
  0
ARC
  8
0
  6
CONTINUOUS
 62
     3
 10
266.601778356
 20
223.665875332
 30
0.0
 40
0.25
 50
0.0
 51
90.0
  0
LINE
  8
0
  6
CONTINUOUS
 62
     3
 10
259.101792072
 20
223.915875657
 30
0.0
 11
266.601778356
 21
223.915875657
 31
0.0
  0
LINE
  8
0
  6
CONTINUOUS
 62
     3
 10
261.601792284
 20
203.615801561
 30
0.0
 11
266.601778471
 21
203.615800991
 31
0.0
  0
LINE
  8
0
  6
CONTINUOUS
 62
     3
 10
259.101792071
 20
190.865855003
 30
0.0
 11
259.101792071
 21
206.365855003
 31
0.0
  0
LINE
  8
0
  6
CONTINUOUS
 62
     3
 10
259.101792071
 20
208.365855003
 30
0.0
 11
259.101792071
 21
223.915875657
 31
0.0
  0
LINE
  8
0
  6
CONTINUOUS
 62
     3
 10
266.851778493
 20
203.865800991
 30
0.0
 11
266.851778357
 21
223.665875332
 31
0.0
  0
ARC
  8
0
  6
CONTINUOUS
 62
     3
 10
266.601778499
 20
203.865800991
 30
0.0
 40
0.25
 50
270.0
 51
0.0
  0
LINE
  8
0
  6
CONTINUOUS
 62
     3
 10
261.601792251
 20
181.815800991
 30
0.0
 11
264.601776637
 21
181.815801067
 31
0.0
  0
LINE
  8
0
  6
CONTINUOUS
 62
     3
 10
266.851792251
 20
203.115800991
 30
0.0
 11
266.851792251
 21
182.315800991
 31
0.0
  0
LINE
  8
0
  6
CONTINUOUS
 62
     3
 10
266.351792251
 20
181.815800991
 30
0.0
 11
261.601792251
 21
181.815800991
 31
0.0
  0
LINE
  8
0
  6
CONTINUOUS
 62
     3
 10
266.351792251
 20
203.615800991
 30
0.0
 11
261.6017921
 21
203.615800991
 31
0.0
  0
ARC
  8
0
  6
CONTINUOUS
 62
     3
 10
266.351792251
 20
203.115800991
 30
0.0
 40
0.5
 50
0.0
 51
90.0
  0
ARC
  8
0
  6
CONTINUOUS
 62
     3
 10
266.351792251
 20
182.315800991
 30
0.0
 40
0.5
 50
270.0
 51
0.0
  0
LINE
  8
0
  6
CONTINUOUS
 62
     3
 10
259.101792179
 20
193.815800991
 30
0.0
 11
259.101792179
 21
190.565800991
 31
0.0
  0
LINE
  8
0
  6
CONTINUOUS
 62
     3
 10
261.601792251
 20
181.815800991
 30
0.0
 11
264.601779195
 21
181.815800991
 31
0.0
  0
POINT
  8
0
  6
CONTINUOUS
 62
     5
 10
261.601792251
 20
181.815800991
 30
0.0
  0
LINE
  8
0
  6
CONTINUOUS
 62
     3
 10
376.222680246
 20
153.865854401
 30
0.0
 11
376.222680246
 21
225.865854401
 31
0.0
  0
LINE
  8
0
  6
CONTINUOUS
 62
     3
 10
377.222680246
 20
153.865854401
 30
0.0
 11
377.222680246
 21
225.865854401
 31
0.0
  0
LINE
  8
0
  6
CONTINUOUS
 62
     3
 10
376.972680246
 20
153.865854401
 30
0.0
 11
376.972680246
 21
225.865854401
 31
0.0
  0
LINE
  8
0
  6
CONTINUOUS
 62
     3
 10
304.472676996
 20
186.209828283
 30
0.0
 11
304.472676996
 21
193.915855003
 31
0.0
  0
LINE
  8
0
  6
CONTINUOUS
 62
     3
 10
304.472676996
 20
193.915855003
 30
0.0
 11
302.472676996
 21
193.915855003
 31
0.0
  0
LINE
  8
0
  6
CONTINUOUS
 62
     3
 10
302.472676996
 20
193.915855003
 30
0.0
 11
302.472676996
 21
195.915855003
 31
0.0
  0
LINE
  8
0
  6
CONTINUOUS
 62
     3
 10
304.222676996
 20
195.915855003
 30
0.0
 11
302.472676996
 21
195.915855003
 31
0.0
  0
LINE
  8
0
  6
CONTINUOUS
 62
     3
 10
304.472676996
 20
186.209828283
 30
0.0
 11
302.472676996
 21
186.209828283
 31
0.0
  0
LINE
  8
0
  6
CONTINUOUS
 62
     3
 10
302.472676996
 20
184.309828283
 30
0.0
 11
302.472676996
 21
186.209828283
 31
0.0
  0
LINE
  8
0
  6
CONTINUOUS
 62
     3
 10
304.222676996
 20
184.309828283
 30
0.0
 11
302.472676996
 21
184.309828283
 31
0.0
  0
LINE
  8
0
  6
CONTINUOUS
 62
     3
 10
304.222676996
 20
153.865854401
 30
0.0
 11
304.222676996
 21
186.209828283
 31
0.0
  0
LINE
  8
0
  6
CONTINUOUS
 62
     3
 10
304.222676996
 20
193.915855003
 30
0.0
 11
304.222676996
 21
225.865854401
 31
0.0
  0
LINE
  8
0
  6
CONTINUOUS
 62
     3
 10
304.472676996
 20
193.365854401
 30
0.0
 11
302.797676996
 21
193.365854401
 31
0.0
  0
LINE
  8
0
  6
CONTINUOUS
 62
     3
 10
302.797676996
 20
186.365854401
 30
0.0
 11
304.472676996
 21
186.365854401
 31
0.0
  0
LINE
  8
0
  6
CONTINUOUS
 62
     3
 10
302.797676996
 20
193.365854401
 30
0.0
 11
302.797676996
 21
186.365854401
 31
0.0
  0
LINE
  8
0
  6
CONTINUOUS
 62
     3
 10
303.072676996
 20
186.365854401
 30
0.0
 11
303.072676996
 21
186.209828283
 31
0.0
  0
LINE
  8
0
  6
CONTINUOUS
 62
     3
 10
303.072676996
 20
193.915854401
 30
0.0
 11
303.072676996
 21
193.365854401
 31
0.0
  0
LINE
  8
0
  6
CONTINUOUS
 62
     3
 10
304.047676996
 20
193.365854401
 30
0.0
 11
304.047676996
 21
186.365854401
 31
0.0
  0
LINE
  8
0
  6
CONTINUOUS
 62
     3
 10
259.101792071
 20
155.815855003
 30
0.0
 11
261.60179243
 21
155.815855066
 31
0.0
  0
LINE
  8
0
  6
CONTINUOUS
 62
     3
 10
261.60179243
 20
155.815855066
 30
0.0
 11
261.6017921
 21
203.615800991
 31
0.0
  0
LINE
  8
0
  6
CONTINUOUS
 62
     3
 10
266.85179243
 20
177.115855066
 30
0.0
 11
266.85179243
 21
156.315855066
 31
0.0
  0
LINE
  8
0
  6
CONTINUOUS
 62
     3
 10
266.35179243
 20
155.815855066
 30
0.0
 11
261.60179243
 21
155.815855066
 31
0.0
  0
LINE
  8
0
  6
CONTINUOUS
 62
     3
 10
266.35179243
 20
177.615855066
 30
0.0
 11
261.60179228
 21
177.615855066
 31
0.0
  0
ARC
  8
0
  6
CONTINUOUS
 62
     3
 10
266.35179243
 20
177.115855066
 30
0.0
 40
0.5
 50
0.0
 51
90.0
  0
ARC
  8
0
  6
CONTINUOUS
 62
     3
 10
266.35179243
 20
156.315855066
 30
0.0
 40
0.5
 50
270.0
 51
0.0
  0
LINE
  8
0
  6
CONTINUOUS
 62
     3
 10
333.472683505
 20
153.865854401
 30
0.0
 11
304.222676996
 21
153.865854401
 31
0.0
  0
LINE
  8
0
  6
CONTINUOUS
 62
     3
 10
377.222680246
 20
153.865854401
 30
0.0
 11
346.972683505
 21
153.865854401
 31
0.0
  0
LINE
  8
0
  6
CONTINUOUS
 62
     3
 10
333.472676996
 20
225.865854401
 30
0.0
 11
304.222676996
 21
225.865854401
 31
0.0
  0
LINE
  8
0
  6
CONTINUOUS
 62
     3
 10
377.222680246
 20
225.865854401
 30
0.0
 11
346.972676996
 21
225.865854401
 31
0.0
  0
LINE
  8
0
  6
CONTINUOUS
 62
     3
 10
130.624007029
 20
155.465854401
 30
0.0
 11
130.624007029
 21
185.865854401
 31
0.0
  0
LINE
  8
0
  6
CONTINUOUS
 62
     3
 10
130.624007029
 20
193.865854401
 30
0.0
 11
130.624007029
 21
224.265854401
 31
0.0
  0
LINE
  8
0
  6
CONTINUOUS
 62
     3
 10
130.623995585
 20
153.865852774
 30
0.0
 11
130.623995585
 21
185.865854401
 31
0.0
  0
LINE
  8
0
  6
CONTINUOUS
 62
     3
 10
130.623995585
 20
193.865854401
 30
0.0
 11
130.623995585
 21
225.865854401
 31
0.0
  0
TEXT
  8
0
  6
CONTINUOUS
 62
     1
 10
204.828808731
 20
206.232926423
 30
0.0
 40
3.099999905
  1
７　ＭＡＸ
 50
0.0
 41
1.0
 51
0.0
  7
KANJI0
  0
POINT
  8
EWAKU0
  6
CONTINUOUS
 62
     5
 10
423.0
 20
4.201
 30
0.0
  0
TEXT
  8
020
  6
CONTINUOUS
 62
     1
 10
126.603413844
 20
36.404010751
 30
0.0
 40
1.859999943
  1
＋１
 50
0.0
 41
1.0
 51
0.0
  7
KANJI1
  0
ARC
  8
0
  6
CONTINUOUS
 62
     1
 10
306.422680251
 20
156.065854401
 30
0.0
 40
0.25
 50
180.0
 51
270.0
  0
ARC
  8
0
  6
CONTINUOUS
 62
     1
 10
306.422680251
 20
156.065854401
 30
0.0
 40
0.25
 50
180.0
 51
270.0
  0
ARC
  8
0
  6
CONTINUOUS
 62
     1
 10
306.422679649
 20
156.065854401
 30
0.0
 40
0.25
 50
180.0
 51
270.0
  0
LINE
  8
0
  6
CONTINUOUS
 62
     1
 10
344.222676996
 20
224.915874917
 30
0.0
 11
344.222676996
 21
223.915874917
 31
0.0
  0
LINE
  8
0
  6
CONTINUOUS
 62
     1
 10
332.722676996
 20
224.915874917
 30
0.0
 11
332.722676996
 21
223.915874917
 31
0.0
  0
LINE
  8
0
  6
CONTINUOUS
 62
     1
 10
347.722676996
 20
224.915874917
 30
0.0
 11
347.722676996
 21
223.915874917
 31
0.0
  0
LINE
  8
0
  6
CONTINUOUS
 62
     1
 10
344.222683505
 20
154.815854401
 30
0.0
 11
344.222683505
 21
155.815854401
 31
0.0
  0
LINE
  8
0
  6
CONTINUOUS
 62
     1
 10
336.222683505
 20
154.815854401
 30
0.0
 11
336.222683505
 21
155.815854401
 31
0.0
  0
LINE
  8
0
  6
CONTINUOUS
 62
     1
 10
347.722683505
 20
154.815854401
 30
0.0
 11
347.722683505
 21
155.815854401
 31
0.0
  0
LINE
  8
0
  6
CONTINUOUS
 62
     1
 10
332.722683505
 20
154.815854401
 30
0.0
 11
332.722683505
 21
155.815854401
 31
0.0
  0
LINE
  8
0
  6
CONTINUOUS
 62
     1
 10
306.272677598
 20
155.665855003
 30
0.0
 11
374.172679649
 21
155.665855003
 31
0.0
  0
LINE
  8
0
  6
CONTINUOUS
 62
     1
 10
306.022677598
 20
155.915855003
 30
0.0
 11
306.022677598
 21
223.815853799
 31
0.0
  0
LINE
  8
0
  6
CONTINUOUS
 62
     1
 10
374.422679649
 20
155.915855003
 30
0.0
 11
374.422679649
 21
223.815853799
 31
0.0
  0
ARC
  8
0
  6
CONTINUOUS
 62
     1
 10
374.172679649
 20
155.915855003
 30
0.0
 40
0.25
 50
270.0
 51
0.0
  0
ARC
  8
0
  6
CONTINUOUS
 62
     1
 10
306.272677598
 20
155.915855003
 30
0.0
 40
0.25
 50
180.0
 51
270.0
  0
ARC
  8
0
  6
CONTINUOUS
 62
     1
 10
306.272677598
 20
223.815853799
 30
0.0
 40
0.25
 50
90.0
 51
180.0
  0
LINE
  8
0
  6
CONTINUOUS
 62
     1
 10
306.022677598
 20
218.165855003
 30
0.0
 11
306.022677598
 21
211.415855003
 31
0.0
  0
ARC
  8
0
  6
CONTINUOUS
 62
     1
 10
306.272677598
 20
223.815853799
 30
0.0
 40
0.25
 50
90.0
 51
180.0
  0
ARC
  8
0
  6
CONTINUOUS
 62
     1
 10
374.172679649
 20
223.815853799
 30
0.0
 40
0.25
 50
0.0
 51
90.0
  0
ARC
  8
0
  6
CONTINUOUS
 62
     1
 10
374.172679649
 20
155.915855003
 30
0.0
 40
0.25
 50
270.0
 51
0.0
  0
ARC
  8
0
  6
CONTINUOUS
 62
     1
 10
306.272677598
 20
155.915855003
 30
0.0
 40
0.25
 50
180.0
 51
270.0
  0
POINT
  8
0
  6
CONTINUOUS
 62
     1
 10
306.172676996
 20
155.815855002
 30
0.0
  0
ARC
  8
0
  6
CONTINUOUS
 62
     1
 10
374.022679649
 20
156.065855003
 30
0.0
 40
0.25
 50
270.0
 51
0.0
  0
ARC
  8
0
  6
CONTINUOUS
 62
     1
 10
306.422677598
 20
156.065855003
 30
0.0
 40
0.25
 50
180.0
 51
270.0
  0
LINE
  8
0
  6
CONTINUOUS
 62
     1
 10
357.847677598
 20
155.815855003
 30
0.0
 11
357.847677598
 21
176.235816568
 31
0.0
  0
LINE
  8
0
  6
CONTINUOUS
 62
     1
 10
358.597677598
 20
155.815855003
 30
0.0
 11
358.597677598
 21
176.235816568
 31
0.0
  0
LINE
  8
0
  6
CONTINUOUS
 62
     1
 10
353.347677598
 20
155.815855003
 30
0.0
 11
353.347677598
 21
176.235816568
 31
0.0
  0
LINE
  8
0
  6
CONTINUOUS
 62
     1
 10
354.097677598
 20
155.815855003
 30
0.0
 11
354.097677598
 21
176.235816568
 31
0.0
  0
LINE
  8
0
  6
CONTINUOUS
 62
     1
 10
348.847677598
 20
155.815855003
 30
0.0
 11
348.847677598
 21
176.235816568
 31
0.0
  0
LINE
  8
0
  6
CONTINUOUS
 62
     1
 10
349.597677598
 20
155.815855003
 30
0.0
 11
349.597677598
 21
176.235816568
 31
0.0
  0
LINE
  8
0
  6
CONTINUOUS
 62
     1
 10
344.347677598
 20
155.815855003
 30
0.0
 11
344.347677598
 21
176.235816568
 31
0.0
  0
LINE
  8
0
  6
CONTINUOUS
 62
     1
 10
345.097677598
 20
155.815855003
 30
0.0
 11
345.097677598
 21
176.235816568
 31
0.0
  0
LINE
  8
0
  6
CONTINUOUS
 62
     1
 10
339.847677598
 20
155.815855003
 30
0.0
 11
339.847677598
 21
176.235816568
 31
0.0
  0
LINE
  8
0
  6
CONTINUOUS
 62
     1
 10
340.597677598
 20
155.815855003
 30
0.0
 11
340.597677598
 21
176.235816568
 31
0.0
  0
LINE
  8
0
  6
CONTINUOUS
 62
     1
 10
335.347677598
 20
155.96581944
 30
0.0
 11
335.347677598
 21
176.235816568
 31
0.0
  0
LINE
  8
0
  6
CONTINUOUS
 62
     1
 10
336.097677598
 20
155.96581944
 30
0.0
 11
336.097677598
 21
176.235816568
 31
0.0
  0
LINE
  8
0
  6
CONTINUOUS
 62
     1
 10
330.847677598
 20
155.815855003
 30
0.0
 11
330.847677598
 21
176.235816568
 31
0.0
  0
LINE
  8
0
  6
CONTINUOUS
 62
     1
 10
331.597677598
 20
155.815855003
 30
0.0
 11
331.597677598
 21
176.235816568
 31
0.0
  0
LINE
  8
0
  6
CONTINUOUS
 62
     1
 10
327.097677598
 20
155.815855003
 30
0.0
 11
327.097677598
 21
176.235816568
 31
0.0
  0
LINE
  8
0
  6
CONTINUOUS
 62
     1
 10
312.847677598
 20
155.815855003
 30
0.0
 11
312.847677598
 21
176.235816568
 31
0.0
  0
LINE
  8
0
  6
CONTINUOUS
 62
     1
 10
313.597677598
 20
155.815855003
 30
0.0
 11
313.597677598
 21
176.235816568
 31
0.0
  0
LINE
  8
0
  6
CONTINUOUS
 62
     1
 10
321.847677598
 20
155.815855003
 30
0.0
 11
321.847677598
 21
176.235816568
 31
0.0
  0
LINE
  8
0
  6
CONTINUOUS
 62
     1
 10
322.597677598
 20
155.815855003
 30
0.0
 11
322.597677598
 21
176.235816568
 31
0.0
  0
LINE
  8
0
  6
CONTINUOUS
 62
     1
 10
326.347677598
 20
155.815855003
 30
0.0
 11
326.347677598
 21
176.235816568
 31
0.0
  0
LINE
  8
0
  6
CONTINUOUS
 62
     1
 10
309.097676394
 20
155.815855003
 30
0.0
 11
309.097676394
 21
176.235816568
 31
0.0
  0
LINE
  8
0
  6
CONTINUOUS
 62
     1
 10
371.347677598
 20
155.815855003
 30
0.0
 11
371.347677598
 21
176.235816568
 31
0.0
  0
LINE
  8
0
  6
CONTINUOUS
 62
     1
 10
308.347676394
 20
176.835816026
 30
0.0
 11
372.097677598
 21
176.835816026
 31
0.0
  0
ARC
  8
0
  6
CONTINUOUS
 62
     1
 10
306.422677598
 20
156.065855003
 30
0.0
 40
0.25
 50
180.0
 51
270.0
  0
ARC
  8
0
  6
CONTINUOUS
 62
     1
 10
374.022679649
 20
156.065855003
 30
0.0
 40
0.25
 50
270.0
 51
0.0
  0
LINE
  8
0
  6
CONTINUOUS
 62
     1
 10
308.347676394
 20
155.815855003
 30
0.0
 11
308.347676394
 21
176.835816026
 31
0.0
  0
LINE
  8
0
  6
CONTINUOUS
 62
     1
 10
367.597677598
 20
181.815803725
 30
0.0
 11
367.597677598
 21
203.735825683
 31
0.0
  0
LINE
  8
0
  6
CONTINUOUS
 62
     1
 10
366.847677598
 20
181.815803725
 30
0.0
 11
366.847677598
 21
203.735825683
 31
0.0
  0
LINE
  8
0
  6
CONTINUOUS
 62
     1
 10
362.347677598
 20
181.815803725
 30
0.0
 11
362.347677598
 21
203.735825683
 31
0.0
  0
LINE
  8
0
  6
CONTINUOUS
 62
     1
 10
363.097677598
 20
181.815803725
 30
0.0
 11
363.097677598
 21
203.735825683
 31
0.0
  0
LINE
  8
0
  6
CONTINUOUS
 62
     1
 10
357.847677598
 20
181.815803725
 30
0.0
 11
357.847677598
 21
203.735825683
 31
0.0
  0
LINE
  8
0
  6
CONTINUOUS
 62
     1
 10
358.597677598
 20
181.815803725
 30
0.0
 11
358.597677598
 21
203.735825683
 31
0.0
  0
LINE
  8
0
  6
CONTINUOUS
 62
     1
 10
353.347677598
 20
181.815803725
 30
0.0
 11
353.347677598
 21
203.735825683
 31
0.0
  0
LINE
  8
0
  6
CONTINUOUS
 62
     1
 10
354.097677598
 20
181.815803725
 30
0.0
 11
354.097677598
 21
203.735825683
 31
0.0
  0
LINE
  8
0
  6
CONTINUOUS
 62
     1
 10
348.847677598
 20
181.815803725
 30
0.0
 11
348.847677598
 21
203.735825683
 31
0.0
  0
LINE
  8
0
  6
CONTINUOUS
 62
     1
 10
349.597677598
 20
181.815803725
 30
0.0
 11
349.597677598
 21
203.735825683
 31
0.0
  0
LINE
  8
0
  6
CONTINUOUS
 62
     1
 10
344.347677598
 20
181.815803725
 30
0.0
 11
344.347677598
 21
203.735825683
 31
0.0
  0
LINE
  8
0
  6
CONTINUOUS
 62
     1
 10
345.097677598
 20
181.815803725
 30
0.0
 11
345.097677598
 21
203.735825683
 31
0.0
  0
LINE
  8
0
  6
CONTINUOUS
 62
     1
 10
339.847677598
 20
181.815803725
 30
0.0
 11
339.847677598
 21
203.735825683
 31
0.0
  0
LINE
  8
0
  6
CONTINUOUS
 62
     1
 10
340.597677598
 20
181.815803725
 30
0.0
 11
340.597677598
 21
203.735825683
 31
0.0
  0
LINE
  8
0
  6
CONTINUOUS
 62
     1
 10
335.347677598
 20
181.815803725
 30
0.0
 11
335.347677598
 21
203.735825683
 31
0.0
  0
LINE
  8
0
  6
CONTINUOUS
 62
     1
 10
336.097677598
 20
181.815803725
 30
0.0
 11
336.097677598
 21
203.735825683
 31
0.0
  0
LINE
  8
0
  6
CONTINUOUS
 62
     1
 10
330.847677598
 20
181.815803725
 30
0.0
 11
330.847677598
 21
203.735825683
 31
0.0
  0
LINE
  8
0
  6
CONTINUOUS
 62
     1
 10
331.597677598
 20
181.815803725
 30
0.0
 11
331.597677598
 21
203.735825683
 31
0.0
  0
LINE
  8
0
  6
CONTINUOUS
 62
     1
 10
327.097677598
 20
181.815803725
 30
0.0
 11
327.097677598
 21
203.735825683
 31
0.0
  0
LINE
  8
0
  6
CONTINUOUS
 62
     1
 10
312.847677598
 20
181.815803725
 30
0.0
 11
312.847677598
 21
203.735825683
 31
0.0
  0
LINE
  8
0
  6
CONTINUOUS
 62
     1
 10
313.597677598
 20
181.815803725
 30
0.0
 11
313.597677598
 21
203.735825683
 31
0.0
  0
LINE
  8
0
  6
CONTINUOUS
 62
     1
 10
317.347677598
 20
181.815803725
 30
0.0
 11
317.347677598
 21
203.735825683
 31
0.0
  0
LINE
  8
0
  6
CONTINUOUS
 62
     1
 10
318.097677598
 20
181.815803725
 30
0.0
 11
318.097677598
 21
203.735825683
 31
0.0
  0
LINE
  8
0
  6
CONTINUOUS
 62
     1
 10
321.847677598
 20
181.815803725
 30
0.0
 11
321.847677598
 21
203.735825683
 31
0.0
  0
LINE
  8
0
  6
CONTINUOUS
 62
     1
 10
322.597677598
 20
181.815803725
 30
0.0
 11
322.597677598
 21
203.735825683
 31
0.0
  0
LINE
  8
0
  6
CONTINUOUS
 62
     1
 10
326.347677598
 20
181.815803725
 30
0.0
 11
326.347677598
 21
203.735825683
 31
0.0
  0
LINE
  8
0
  6
CONTINUOUS
 62
     1
 10
309.097676394
 20
181.815803725
 30
0.0
 11
309.097676394
 21
203.735825683
 31
0.0
  0
LINE
  8
0
  6
CONTINUOUS
 62
     1
 10
371.347677598
 20
181.815803725
 30
0.0
 11
371.347677598
 21
203.735825683
 31
0.0
  0
LINE
  8
0
  6
CONTINUOUS
 62
     1
 10
308.347676394
 20
181.815803725
 30
0.0
 11
308.347676394
 21
203.735825683
 31
0.0
  0
LINE
  8
0
  6
CONTINUOUS
 62
     1
 10
372.097677598
 20
181.815803725
 30
0.0
 11
372.097677598
 21
203.735825683
 31
0.0
  0
LINE
  8
0
  6
CONTINUOUS
 62
     1
 10
308.347676394
 20
181.815800852
 30
0.0
 11
309.097676394
 21
181.815800852
 31
0.0
  0
LINE
  8
0
  6
CONTINUOUS
 62
     1
 10
312.847677598
 20
181.815800852
 30
0.0
 11
313.597677598
 21
181.815800852
 31
0.0
  0
LINE
  8
0
  6
CONTINUOUS
 62
     1
 10
317.347677598
 20
181.815800852
 30
0.0
 11
318.097677598
 21
181.815800852
 31
0.0
  0
LINE
  8
0
  6
CONTINUOUS
 62
     1
 10
321.847677598
 20
181.815800852
 30
0.0
 11
322.597677598
 21
181.815800852
 31
0.0
  0
LINE
  8
0
  6
CONTINUOUS
 62
     1
 10
326.347677598
 20
181.815800852
 30
0.0
 11
327.097677598
 21
181.815800852
 31
0.0
  0
LINE
  8
0
  6
CONTINUOUS
 62
     1
 10
330.847677598
 20
181.815800852
 30
0.0
 11
331.597677598
 21
181.815800852
 31
0.0
  0
LINE
  8
0
  6
CONTINUOUS
 62
     1
 10
335.347677598
 20
181.815800852
 30
0.0
 11
336.097677598
 21
181.815800852
 31
0.0
  0
LINE
  8
0
  6
CONTINUOUS
 62
     1
 10
339.847677598
 20
181.815800852
 30
0.0
 11
340.597677598
 21
181.815800852
 31
0.0
  0
LINE
  8
0
  6
CONTINUOUS
 62
     1
 10
344.347677598
 20
181.815800852
 30
0.0
 11
345.097677598
 21
181.815800852
 31
0.0
  0
LINE
  8
0
  6
CONTINUOUS
 62
     1
 10
348.847677598
 20
181.815800852
 30
0.0
 11
349.597677598
 21
181.815800852
 31
0.0
  0
LINE
  8
0
  6
CONTINUOUS
 62
     1
 10
353.347677598
 20
181.815800852
 30
0.0
 11
354.097677598
 21
181.815800852
 31
0.0
  0
LINE
  8
0
  6
CONTINUOUS
 62
     1
 10
357.847677598
 20
181.815800852
 30
0.0
 11
358.597677598
 21
181.815800852
 31
0.0
  0
LINE
  8
0
  6
CONTINUOUS
 62
     1
 10
362.347677598
 20
181.815800852
 30
0.0
 11
363.097677598
 21
181.815800852
 31
0.0
  0
LINE
  8
0
  6
CONTINUOUS
 62
     1
 10
366.847677598
 20
181.815800852
 30
0.0
 11
367.597677598
 21
181.815800852
 31
0.0
  0
LINE
  8
0
  6
CONTINUOUS
 62
     1
 10
371.347677598
 20
181.815800852
 30
0.0
 11
372.097677598
 21
181.815800852
 31
0.0
  0
LINE
  8
0
  6
CONTINUOUS
 62
     1
 10
309.097676394
 20
176.235816568
 30
0.0
 11
312.847677598
 21
176.235816568
 31
0.0
  0
LINE
  8
0
  6
CONTINUOUS
 62
     1
 10
313.597677598
 20
176.235816568
 30
0.0
 11
317.347677598
 21
176.235816568
 31
0.0
  0
LINE
  8
0
  6
CONTINUOUS
 62
     1
 10
318.097677598
 20
176.235816568
 30
0.0
 11
321.847677598
 21
176.235816568
 31
0.0
  0
LINE
  8
0
  6
CONTINUOUS
 62
     1
 10
322.597677598
 20
176.235816568
 30
0.0
 11
326.347677598
 21
176.235816568
 31
0.0
  0
LINE
  8
0
  6
CONTINUOUS
 62
     1
 10
327.097677598
 20
176.235816568
 30
0.0
 11
330.847677598
 21
176.235816568
 31
0.0
  0
LINE
  8
0
  6
CONTINUOUS
 62
     1
 10
331.597677598
 20
176.235816568
 30
0.0
 11
335.347677598
 21
176.235816568
 31
0.0
  0
LINE
  8
0
  6
CONTINUOUS
 62
     1
 10
336.097677598
 20
176.235816568
 30
0.0
 11
339.847677598
 21
176.235816568
 31
0.0
  0
LINE
  8
0
  6
CONTINUOUS
 62
     1
 10
340.597677598
 20
176.235816568
 30
0.0
 11
344.347677598
 21
176.235816568
 31
0.0
  0
LINE
  8
0
  6
CONTINUOUS
 62
     1
 10
345.097677598
 20
176.235816568
 30
0.0
 11
348.847677598
 21
176.235816568
 31
0.0
  0
LINE
  8
0
  6
CONTINUOUS
 62
     1
 10
349.597677598
 20
176.235816568
 30
0.0
 11
353.347677598
 21
176.235816568
 31
0.0
  0
LINE
  8
0
  6
CONTINUOUS
 62
     1
 10
354.097677598
 20
176.235816568
 30
0.0
 11
357.847677598
 21
176.235816568
 31
0.0
  0
LINE
  8
0
  6
CONTINUOUS
 62
     1
 10
358.597677598
 20
176.235816568
 30
0.0
 11
362.347677598
 21
176.235816568
 31
0.0
  0
LINE
  8
0
  6
CONTINUOUS
 62
     1
 10
363.097677598
 20
176.235816568
 30
0.0
 11
366.847677598
 21
176.235816568
 31
0.0
  0
LINE
  8
0
  6
CONTINUOUS
 62
     1
 10
367.597677598
 20
176.235816568
 30
0.0
 11
371.347677598
 21
176.235816568
 31
0.0
  0
ARC
  8
0
  6
CONTINUOUS
 62
     1
 10
306.422676996
 20
156.065855003
 30
0.0
 40
0.25
 50
180.0
 51
270.0
  0
ARC
  8
0
  6
CONTINUOUS
 62
     1
 10
374.022676996
 20
156.065855003
 30
0.0
 40
0.25
 50
270.0
 51
0.0
  0
ARC
  8
0
  6
CONTINUOUS
 62
     1
 10
374.022676996
 20
223.665875519
 30
0.0
 40
0.25
 50
0.0
 51
90.0
  0
ARC
  8
0
  6
CONTINUOUS
 62
     1
 10
306.422676996
 20
223.665875519
 30
0.0
 40
0.25
 50
90.0
 51
180.0
  0
LINE
  8
0
  6
CONTINUOUS
 62
     1
 10
326.222676996
 20
221.415875519
 30
0.0
 11
312.222676996
 21
221.415875519
 31
0.0
  0
LINE
  8
0
  6
CONTINUOUS
 62
     1
 10
326.222676996
 20
220.415875519
 30
0.0
 11
312.222676996
 21
220.415875519
 31
0.0
  0
ARC
  8
0
  6
CONTINUOUS
 62
     1
 10
326.222676996
 20
220.915875519
 30
0.0
 40
0.5
 50
270.0
 51
90.0
  0
ARC
  8
0
  6
CONTINUOUS
 62
     1
 10
312.222676996
 20
220.915875519
 30
0.0
 40
0.5
 50
90.0
 51
270.0
  0
LINE
  8
0
  6
CONTINUOUS
 62
     1
 10
347.222676996
 20
221.415875519
 30
0.0
 11
333.222676996
 21
221.415875519
 31
0.0
  0
LINE
  8
0
  6
CONTINUOUS
 62
     1
 10
347.222676996
 20
220.415875519
 30
0.0
 11
333.222676996
 21
220.415875519
 31
0.0
  0
ARC
  8
0
  6
CONTINUOUS
 62
     1
 10
347.222676996
 20
220.915875519
 30
0.0
 40
0.5
 50
270.0
 51
90.0
  0
ARC
  8
0
  6
CONTINUOUS
 62
     1
 10
333.222676996
 20
220.915875519
 30
0.0
 40
0.5
 50
90.0
 51
270.0
  0
LINE
  8
0
  6
CONTINUOUS
 62
     1
 10
368.222676996
 20
221.415875519
 30
0.0
 11
354.222676996
 21
221.415875519
 31
0.0
  0
LINE
  8
0
  6
CONTINUOUS
 62
     1
 10
368.222676996
 20
220.415875519
 30
0.0
 11
354.222676996
 21
220.415875519
 31
0.0
  0
ARC
  8
0
  6
CONTINUOUS
 62
     1
 10
368.222676996
 20
220.915875519
 30
0.0
 40
0.5
 50
270.0
 51
90.0
  0
ARC
  8
0
  6
CONTINUOUS
 62
     1
 10
354.222676996
 20
220.915875519
 30
0.0
 40
0.5
 50
90.0
 51
270.0
  0
LINE
  8
0
  6
CONTINUOUS
 62
     1
 10
326.222676996
 20
219.415875519
 30
0.0
 11
312.222676996
 21
219.415875519
 31
0.0
  0
LINE
  8
0
  6
CONTINUOUS
 62
     1
 10
326.222676996
 20
218.415875519
 30
0.0
 11
312.222676996
 21
218.415875519
 31
0.0
  0
ARC
  8
0
  6
CONTINUOUS
 62
     1
 10
326.222676996
 20
218.915875519
 30
0.0
 40
0.5
 50
270.0
 51
90.0
  0
ARC
  8
0
  6
CONTINUOUS
 62
     1
 10
312.222676996
 20
218.915875519
 30
0.0
 40
0.5
 50
90.0
 51
270.0
  0
LINE
  8
0
  6
CONTINUOUS
 62
     1
 10
347.222676996
 20
219.415875519
 30
0.0
 11
333.222676996
 21
219.415875519
 31
0.0
  0
LINE
  8
0
  6
CONTINUOUS
 62
     1
 10
347.222676996
 20
218.415875519
 30
0.0
 11
333.222676996
 21
218.415875519
 31
0.0
  0
ARC
  8
0
  6
CONTINUOUS
 62
     1
 10
347.222676996
 20
218.915875519
 30
0.0
 40
0.5
 50
270.0
 51
90.0
  0
ARC
  8
0
  6
CONTINUOUS
 62
     1
 10
333.222676996
 20
218.915875519
 30
0.0
 40
0.5
 50
90.0
 51
270.0
  0
LINE
  8
0
  6
CONTINUOUS
 62
     1
 10
368.222676996
 20
219.415875519
 30
0.0
 11
354.222676996
 21
219.415875519
 31
0.0
  0
LINE
  8
0
  6
CONTINUOUS
 62
     1
 10
368.222676996
 20
218.415875519
 30
0.0
 11
354.222676996
 21
218.415875519
 31
0.0
  0
ARC
  8
0
  6
CONTINUOUS
 62
     1
 10
368.222676996
 20
218.915875519
 30
0.0
 40
0.5
 50
270.0
 51
90.0
  0
ARC
  8
0
  6
CONTINUOUS
 62
     1
 10
354.222676996
 20
218.915875519
 30
0.0
 40
0.5
 50
90.0
 51
270.0
  0
LINE
  8
0
  6
CONTINUOUS
 62
     1
 10
326.222676996
 20
217.415875519
 30
0.0
 11
312.222676996
 21
217.415875519
 31
0.0
  0
LINE
  8
0
  6
CONTINUOUS
 62
     1
 10
326.222676996
 20
216.415875519
 30
0.0
 11
312.222676996
 21
216.415875519
 31
0.0
  0
ARC
  8
0
  6
CONTINUOUS
 62
     1
 10
326.222676996
 20
216.915875519
 30
0.0
 40
0.5
 50
270.0
 51
90.0
  0
ARC
  8
0
  6
CONTINUOUS
 62
     1
 10
312.222676996
 20
216.915875519
 30
0.0
 40
0.5
 50
90.0
 51
270.0
  0
LINE
  8
0
  6
CONTINUOUS
 62
     1
 10
347.222676996
 20
217.415875519
 30
0.0
 11
333.222676996
 21
217.415875519
 31
0.0
  0
LINE
  8
0
  6
CONTINUOUS
 62
     1
 10
347.222676996
 20
216.415875519
 30
0.0
 11
333.222676996
 21
216.415875519
 31
0.0
  0
ARC
  8
0
  6
CONTINUOUS
 62
     1
 10
347.222676996
 20
216.915875519
 30
0.0
 40
0.5
 50
270.0
 51
90.0
  0
ARC
  8
0
  6
CONTINUOUS
 62
     1
 10
333.222676996
 20
216.915875519
 30
0.0
 40
0.5
 50
90.0
 51
270.0
  0
LINE
  8
0
  6
CONTINUOUS
 62
     1
 10
368.222676996
 20
217.415875519
 30
0.0
 11
354.222676996
 21
217.415875519
 31
0.0
  0
LINE
  8
0
  6
CONTINUOUS
 62
     1
 10
368.222676996
 20
216.415875519
 30
0.0
 11
354.222676996
 21
216.415875519
 31
0.0
  0
ARC
  8
0
  6
CONTINUOUS
 62
     1
 10
368.222676996
 20
216.915875519
 30
0.0
 40
0.5
 50
270.0
 51
90.0
  0
ARC
  8
0
  6
CONTINUOUS
 62
     1
 10
354.222676996
 20
216.915875519
 30
0.0
 40
0.5
 50
90.0
 51
270.0
  0
LINE
  8
0
  6
CONTINUOUS
 62
     1
 10
326.222676996
 20
215.415875519
 30
0.0
 11
312.222676996
 21
215.415875519
 31
0.0
  0
LINE
  8
0
  6
CONTINUOUS
 62
     1
 10
326.222676996
 20
214.415875519
 30
0.0
 11
312.222676996
 21
214.415875519
 31
0.0
  0
ARC
  8
0
  6
CONTINUOUS
 62
     1
 10
326.222676996
 20
214.915875519
 30
0.0
 40
0.5
 50
270.0
 51
90.0
  0
ARC
  8
0
  6
CONTINUOUS
 62
     1
 10
312.222676996
 20
214.915875519
 30
0.0
 40
0.5
 50
90.0
 51
270.0
  0
LINE
  8
0
  6
CONTINUOUS
 62
     1
 10
347.222676996
 20
215.415875519
 30
0.0
 11
333.222676996
 21
215.415875519
 31
0.0
  0
LINE
  8
0
  6
CONTINUOUS
 62
     1
 10
347.222676996
 20
214.415875519
 30
0.0
 11
333.222676996
 21
214.415875519
 31
0.0
  0
ARC
  8
0
  6
CONTINUOUS
 62
     1
 10
347.222676996
 20
214.915875519
 30
0.0
 40
0.5
 50
270.0
 51
90.0
  0
ARC
  8
0
  6
CONTINUOUS
 62
     1
 10
333.222676996
 20
214.915875519
 30
0.0
 40
0.5
 50
90.0
 51
270.0
  0
LINE
  8
0
  6
CONTINUOUS
 62
     1
 10
368.222676996
 20
215.415875519
 30
0.0
 11
354.222676996
 21
215.415875519
 31
0.0
  0
LINE
  8
0
  6
CONTINUOUS
 62
     1
 10
368.222676996
 20
214.415875519
 30
0.0
 11
354.222676996
 21
214.415875519
 31
0.0
  0
ARC
  8
0
  6
CONTINUOUS
 62
     1
 10
368.222676996
 20
214.915875519
 30
0.0
 40
0.5
 50
270.0
 51
90.0
  0
ARC
  8
0
  6
CONTINUOUS
 62
     1
 10
354.222676996
 20
214.915875519
 30
0.0
 40
0.5
 50
90.0
 51
270.0
  0
LINE
  8
0
  6
CONTINUOUS
 62
     1
 10
326.222676996
 20
213.415875519
 30
0.0
 11
312.222676996
 21
213.415875519
 31
0.0
  0
LINE
  8
0
  6
CONTINUOUS
 62
     1
 10
326.222676996
 20
212.415875519
 30
0.0
 11
312.222676996
 21
212.415875519
 31
0.0
  0
ARC
  8
0
  6
CONTINUOUS
 62
     1
 10
326.222676996
 20
212.915875519
 30
0.0
 40
0.5
 50
270.0
 51
90.0
  0
ARC
  8
0
  6
CONTINUOUS
 62
     1
 10
312.222676996
 20
212.915875519
 30
0.0
 40
0.5
 50
90.0
 51
270.0
  0
LINE
  8
0
  6
CONTINUOUS
 62
     1
 10
347.222676996
 20
213.415875519
 30
0.0
 11
333.222676996
 21
213.415875519
 31
0.0
  0
LINE
  8
0
  6
CONTINUOUS
 62
     1
 10
347.222676996
 20
212.415875519
 30
0.0
 11
333.222676996
 21
212.415875519
 31
0.0
  0
ARC
  8
0
  6
CONTINUOUS
 62
     1
 10
347.222676996
 20
212.915875519
 30
0.0
 40
0.5
 50
270.0
 51
90.0
  0
ARC
  8
0
  6
CONTINUOUS
 62
     1
 10
333.222676996
 20
212.915875519
 30
0.0
 40
0.5
 50
90.0
 51
270.0
  0
LINE
  8
0
  6
CONTINUOUS
 62
     1
 10
368.222676996
 20
213.415875519
 30
0.0
 11
354.222676996
 21
213.415875519
 31
0.0
  0
LINE
  8
0
  6
CONTINUOUS
 62
     1
 10
368.222676996
 20
212.415875519
 30
0.0
 11
354.222676996
 21
212.415875519
 31
0.0
  0
ARC
  8
0
  6
CONTINUOUS
 62
     1
 10
368.222676996
 20
212.915875519
 30
0.0
 40
0.5
 50
270.0
 51
90.0
  0
ARC
  8
0
  6
CONTINUOUS
 62
     1
 10
354.222676996
 20
212.915875519
 30
0.0
 40
0.5
 50
90.0
 51
270.0
  0
LINE
  8
0
  6
CONTINUOUS
 62
     1
 10
326.222676996
 20
211.415875519
 30
0.0
 11
312.222676996
 21
211.415875519
 31
0.0
  0
LINE
  8
0
  6
CONTINUOUS
 62
     1
 10
326.222676996
 20
210.415875519
 30
0.0
 11
312.222676996
 21
210.415875519
 31
0.0
  0
ARC
  8
0
  6
CONTINUOUS
 62
     1
 10
326.222676996
 20
210.915875519
 30
0.0
 40
0.5
 50
270.0
 51
90.0
  0
ARC
  8
0
  6
CONTINUOUS
 62
     1
 10
312.222676996
 20
210.915875519
 30
0.0
 40
0.5
 50
90.0
 51
270.0
  0
LINE
  8
0
  6
CONTINUOUS
 62
     1
 10
347.222676996
 20
211.415875519
 30
0.0
 11
333.222676996
 21
211.415875519
 31
0.0
  0
LINE
  8
0
  6
CONTINUOUS
 62
     1
 10
347.222676996
 20
210.415875519
 30
0.0
 11
333.222676996
 21
210.415875519
 31
0.0
  0
ARC
  8
0
  6
CONTINUOUS
 62
     1
 10
347.222676996
 20
210.915875519
 30
0.0
 40
0.5
 50
270.0
 51
90.0
  0
ARC
  8
0
  6
CONTINUOUS
 62
     1
 10
333.222676996
 20
210.915875519
 30
0.0
 40
0.5
 50
90.0
 51
270.0
  0
LINE
  8
0
  6
CONTINUOUS
 62
     1
 10
368.222676996
 20
211.415875519
 30
0.0
 11
354.222676996
 21
211.415875519
 31
0.0
  0
LINE
  8
0
  6
CONTINUOUS
 62
     1
 10
368.222676996
 20
210.415875519
 30
0.0
 11
354.222676996
 21
210.415875519
 31
0.0
  0
ARC
  8
0
  6
CONTINUOUS
 62
     1
 10
368.222676996
 20
210.915875519
 30
0.0
 40
0.5
 50
270.0
 51
90.0
  0
ARC
  8
0
  6
CONTINUOUS
 62
     1
 10
354.222676996
 20
210.915875519
 30
0.0
 40
0.5
 50
90.0
 51
270.0
  0
LINE
  8
0
  6
CONTINUOUS
 62
     1
 10
326.222676996
 20
209.415875519
 30
0.0
 11
312.222676996
 21
209.415875519
 31
0.0
  0
LINE
  8
0
  6
CONTINUOUS
 62
     1
 10
326.222676996
 20
208.415875519
 30
0.0
 11
312.222676996
 21
208.415875519
 31
0.0
  0
ARC
  8
0
  6
CONTINUOUS
 62
     1
 10
326.222676996
 20
208.915875519
 30
0.0
 40
0.5
 50
270.0
 51
90.0
  0
ARC
  8
0
  6
CONTINUOUS
 62
     1
 10
312.222676996
 20
208.915875519
 30
0.0
 40
0.5
 50
90.0
 51
270.0
  0
LINE
  8
0
  6
CONTINUOUS
 62
     1
 10
347.222676996
 20
209.415875519
 30
0.0
 11
333.222676996
 21
209.415875519
 31
0.0
  0
LINE
  8
0
  6
CONTINUOUS
 62
     1
 10
347.222676996
 20
208.415875519
 30
0.0
 11
333.222676996
 21
208.415875519
 31
0.0
  0
ARC
  8
0
  6
CONTINUOUS
 62
     1
 10
347.222676996
 20
208.915875519
 30
0.0
 40
0.5
 50
270.0
 51
90.0
  0
ARC
  8
0
  6
CONTINUOUS
 62
     1
 10
333.222676996
 20
208.915875519
 30
0.0
 40
0.5
 50
90.0
 51
270.0
  0
LINE
  8
0
  6
CONTINUOUS
 62
     1
 10
368.222676996
 20
209.415875519
 30
0.0
 11
354.222676996
 21
209.415875519
 31
0.0
  0
LINE
  8
0
  6
CONTINUOUS
 62
     1
 10
368.222676996
 20
208.415875519
 30
0.0
 11
354.222676996
 21
208.415875519
 31
0.0
  0
ARC
  8
0
  6
CONTINUOUS
 62
     1
 10
368.222676996
 20
208.915875519
 30
0.0
 40
0.5
 50
270.0
 51
90.0
  0
ARC
  8
0
  6
CONTINUOUS
 62
     1
 10
354.222676996
 20
208.915875519
 30
0.0
 40
0.5
 50
90.0
 51
270.0
  0
LINE
  8
0
  6
CONTINUOUS
 62
     1
 10
326.222676996
 20
207.415875519
 30
0.0
 11
312.222676996
 21
207.415875519
 31
0.0
  0
LINE
  8
0
  6
CONTINUOUS
 62
     1
 10
326.222676996
 20
206.415875519
 30
0.0
 11
312.222676996
 21
206.415875519
 31
0.0
  0
ARC
  8
0
  6
CONTINUOUS
 62
     1
 10
326.222676996
 20
206.915875519
 30
0.0
 40
0.5
 50
270.0
 51
90.0
  0
ARC
  8
0
  6
CONTINUOUS
 62
     1
 10
312.222676996
 20
206.915875519
 30
0.0
 40
0.5
 50
90.0
 51
270.0
  0
LINE
  8
0
  6
CONTINUOUS
 62
     1
 10
347.222676996
 20
207.415875519
 30
0.0
 11
333.222676996
 21
207.415875519
 31
0.0
  0
LINE
  8
0
  6
CONTINUOUS
 62
     1
 10
347.222676996
 20
206.415875519
 30
0.0
 11
333.222676996
 21
206.415875519
 31
0.0
  0
ARC
  8
0
  6
CONTINUOUS
 62
     1
 10
347.222676996
 20
206.915875519
 30
0.0
 40
0.5
 50
270.0
 51
90.0
  0
ARC
  8
0
  6
CONTINUOUS
 62
     1
 10
333.222676996
 20
206.915875519
 30
0.0
 40
0.5
 50
90.0
 51
270.0
  0
LINE
  8
0
  6
CONTINUOUS
 62
     1
 10
368.222676996
 20
207.415875519
 30
0.0
 11
354.222676996
 21
207.415875519
 31
0.0
  0
ARC
  8
0
  6
CONTINUOUS
 62
     1
 10
368.222676996
 20
206.915875519
 30
0.0
 40
0.5
 50
270.0
 51
90.0
  0
ARC
  8
0
  6
CONTINUOUS
 62
     1
 10
354.222676996
 20
206.915875519
 30
0.0
 40
0.5
 50
90.0
 51
270.0
  0
LINE
  8
0
  6
CONTINUOUS
 62
     1
 10
306.672676996
 20
208.865854864
 30
0.0
 11
306.672676996
 21
210.865854864
 31
0.0
  0
LINE
  8
0
  6
CONTINUOUS
 62
     1
 10
306.172676996
 20
208.865854864
 30
0.0
 11
306.672676996
 21
208.865854864
 31
0.0
  0
LINE
  8
0
  6
CONTINUOUS
 62
     1
 10
306.172676996
 20
210.865854864
 30
0.0
 11
306.672676996
 21
210.865854864
 31
0.0
  0
LINE
  8
0
  6
CONTINUOUS
 62
     1
 10
306.172676996
 20
208.865854864
 30
0.0
 11
306.672676996
 21
208.865854864
 31
0.0
  0
LINE
  8
0
  6
CONTINUOUS
 62
     1
 10
361.472677034
 20
223.415854864
 30
0.0
 11
359.472677034
 21
223.415854864
 31
0.0
  0
LINE
  8
0
  6
CONTINUOUS
 62
     1
 10
359.472677034
 20
223.415854864
 30
0.0
 11
359.472677034
 21
223.915854864
 31
0.0
  0
LINE
  8
0
  6
CONTINUOUS
 62
     1
 10
361.472677034
 20
223.415854864
 30
0.0
 11
361.472677034
 21
223.915854864
 31
0.0
  0
LINE
  8
0
  6
CONTINUOUS
 62
     1
 10
320.972677034
 20
223.415854864
 30
0.0
 11
318.972677034
 21
223.415854864
 31
0.0
  0
LINE
  8
0
  6
CONTINUOUS
 62
     1
 10
318.972677034
 20
223.415854864
 30
0.0
 11
318.972677034
 21
223.915854864
 31
0.0
  0
LINE
  8
0
  6
CONTINUOUS
 62
     1
 10
320.972677034
 20
223.415854864
 30
0.0
 11
320.972677034
 21
223.915854864
 31
0.0
  0
LINE
  8
0
  6
CONTINUOUS
 62
     1
 10
306.172676996
 20
156.065855003
 30
0.0
 11
306.172676996
 21
223.665875519
 31
0.0
  0
LINE
  8
0
  6
CONTINUOUS
 62
     1
 10
306.422676996
 20
155.815855003
 30
0.0
 11
374.022679649
 21
155.815855003
 31
0.0
  0
LINE
  8
0
  6
CONTINUOUS
 62
     1
 10
374.272676996
 20
156.065855003
 30
0.0
 11
374.272676996
 21
223.665875519
 31
0.0
  0
LINE
  8
0
  6
CONTINUOUS
 62
     1
 10
317.347677598
 20
155.815855003
 30
0.0
 11
317.347677598
 21
176.235816568
 31
0.0
  0
LINE
  8
0
  6
CONTINUOUS
 62
     1
 10
318.097677598
 20
155.815855003
 30
0.0
 11
318.097677598
 21
176.235816568
 31
0.0
  0
LINE
  8
0
  6
CONTINUOUS
 62
     1
 10
306.172676996
 20
203.735825683
 30
0.0
 11
374.272676996
 21
203.735825683
 31
0.0
  0
LINE
  8
0
  6
CONTINUOUS
 62
     1
 10
373.772676996
 20
208.865854864
 30
0.0
 11
373.772676996
 21
210.865854864
 31
0.0
  0
LINE
  8
0
  6
CONTINUOUS
 62
     1
 10
373.772676996
 20
208.865854864
 30
0.0
 11
374.272676996
 21
208.865854864
 31
0.0
  0
LINE
  8
0
  6
CONTINUOUS
 62
     1
 10
373.772676996
 20
210.865854864
 30
0.0
 11
374.272676996
 21
210.865854864
 31
0.0
  0
LINE
  8
0
  6
CONTINUOUS
 62
     1
 10
373.772676996
 20
208.865854864
 30
0.0
 11
374.272676996
 21
208.865854864
 31
0.0
  0
POINT
  8
011
  6
CONTINUOUS
 62
     1
 10
340.222676996
 20
181.663593328
 30
0.0
  0
LINE
  8
011
  6
CONTINUOUS
 62
     1
 10
307.972676996
 20
155.663647478
 30
0.0
 11
372.472676996
 21
155.663647478
 31
0.0
  0
POINT
  8
011
  6
CONTINUOUS
 62
     1
 10
340.222676996
 20
155.663647478
 30
0.0
  0
POINT
  8
011
  6
CONTINUOUS
 62
     1
 10
340.222676996
 20
155.663647478
 30
0.0
  0
LINE
  8
011
  6
CONTINUOUS
 62
     1
 10
374.272676996
 20
194.913593328
 30
0.0
 11
374.272676996
 21
190.213593328
 31
0.0
  0
LINE
  8
011
  6
CONTINUOUS
 62
     1
 10
306.172676996
 20
194.913593328
 30
0.0
 11
306.172676996
 21
190.213593328
 31
0.0
  0
LINE
  8
011
  6
CONTINUOUS
 62
     1
 10
374.272676996
 20
168.913647478
 30
0.0
 11
374.272676996
 21
164.213647478
 31
0.0
  0
LINE
  8
011
  6
CONTINUOUS
 62
     1
 10
306.172676996
 20
168.540855003
 30
0.0
 11
306.172676996
 21
163.840855003
 31
0.0
  0
LINE
  8
0
  6
CONTINUOUS
 62
     1
 10
372.097677598
 20
155.815855003
 30
0.0
 11
372.097677598
 21
176.835816026
 31
0.0
  0
LINE
  8
0
  6
CONTINUOUS
 62
     1
 10
368.222676996
 20
206.415875519
 30
0.0
 11
354.222676996
 21
206.415875519
 31
0.0
  0
TEXT
  8
0
  6
CONTINUOUS
 62
     1
 10
359.597686697
 20
194.438593328
 30
0.0
 40
1.75
  1
Ｎ
 50
0.0
 41
1.0
 51
0.0
  7
KANJI2
  0
TEXT
  8
0
  6
CONTINUOUS
 62
     1
 10
355.097686697
 20
194.438593328
 30
0.0
 40
1.75
  1
Ｌ
 50
0.0
 41
1.0
 51
0.0
  7
KANJI2
  0
CIRCLE
  8
0
  6
CONTINUOUS
 62
     1
 10
364.972686697
 20
195.663593328
 30
0.0
 40
1.125
  0
LINE
  8
0
  6
CONTINUOUS
 62
     1
 10
364.222686697
 20
195.438593328
 30
0.0
 11
365.722686697
 21
195.438593328
 31
0.0
  0
LINE
  8
0
  6
CONTINUOUS
 62
     1
 10
364.972686697
 20
195.438593328
 30
0.0
 11
364.972686697
 21
196.488593328
 31
0.0
  0
LINE
  8
0
  6
CONTINUOUS
 62
     1
 10
364.372686697
 20
195.138593328
 30
0.0
 11
365.572686697
 21
195.138593328
 31
0.0
  0
LINE
  8
0
  6
CONTINUOUS
 62
     1
 10
364.597686697
 20
194.838593328
 30
0.0
 11
365.347686697
 21
194.838593328
 31
0.0
  0
LINE
  8
0
  6
CONTINUOUS
 62
     1
 10
391.488357928
 20
224.065853799
 30
0.0
 11
391.488357928
 21
155.665855003
 31
0.0
  0
LINE
  8
0
  6
CONTINUOUS
 62
     1
 10
392.088357952
 20
222.065853799
 30
0.0
 11
391.488357928
 21
224.065853799
 31
0.0
  0
LINE
  8
0
  6
CONTINUOUS
 62
     1
 10
391.488357928
 20
224.065853799
 30
0.0
 11
390.888357905
 21
222.065853799
 31
0.0
  0
LINE
  8
0
  6
CONTINUOUS
 62
     1
 10
392.088357952
 20
157.665855003
 30
0.0
 11
391.488357928
 21
155.665855003
 31
0.0
  0
LINE
  8
0
  6
CONTINUOUS
 62
     1
 10
391.488357928
 20
155.665855003
 30
0.0
 11
390.888357905
 21
157.665855003
 31
0.0
  0
TEXT
  8
0
  6
CONTINUOUS
 62
     1
 10
390.988357928
 20
185.215854544
 30
0.0
 40
3.099999905
  1
１３７
 50
90.0
 41
1.0
 51
0.0
  7
KANJI0
  0
LINE
  8
0
  6
CONTINUOUS
 62
     1
 10
374.972679661
 20
224.065853799
 30
0.0
 11
393.488357928
 21
224.065853799
 31
0.0
  0
LINE
  8
0
  6
CONTINUOUS
 62
     1
 10
374.972679661
 20
155.665855003
 30
0.0
 11
393.488357928
 21
155.665855003
 31
0.0
  0
LINE
  8
0
  6
CONTINUOUS
 62
     1
 10
306.022677598
 20
240.064166299
 30
0.0
 11
374.422679649
 21
240.064166299
 31
0.0
  0
LINE
  8
0
  6
CONTINUOUS
 62
     1
 10
308.022677598
 20
240.664166323
 30
0.0
 11
306.022677598
 21
240.064166299
 31
0.0
  0
LINE
  8
0
  6
CONTINUOUS
 62
     1
 10
306.022677598
 20
240.064166299
 30
0.0
 11
308.022677598
 21
239.464166275
 31
0.0
  0
LINE
  8
0
  6
CONTINUOUS
 62
     1
 10
372.422679649
 20
240.664166323
 30
0.0
 11
374.422679649
 21
240.064166299
 31
0.0
  0
LINE
  8
0
  6
CONTINUOUS
 62
     1
 10
374.422679649
 20
240.064166299
 30
0.0
 11
372.422679649
 21
239.464166275
 31
0.0
  0
TEXT
  8
0
  6
CONTINUOUS
 62
     1
 10
335.572678767
 20
240.564166299
 30
0.0
 40
3.099999905
  1
１３７
 50
0.0
 41
1.0
 51
0.0
  7
KANJI0
  0
LINE
  8
0
  6
CONTINUOUS
 62
     1
 10
306.022677598
 20
224.615853811
 30
0.0
 11
306.022677598
 21
242.064166299
 31
0.0
  0
LINE
  8
0
  6
CONTINUOUS
 62
     1
 10
374.422679649
 20
224.615853811
 30
0.0
 11
374.422679649
 21
242.064166299
 31
0.0
  0
LINE
  8
0
  6
CONTINUOUS
 62
     1
 10
179.351792081
 20
225.465855015
 30
0.0
 11
179.351792081
 21
242.064166299
 31
0.0
  0
LINE
  8
0
  6
CONTINUOUS
 62
     1
 10
176.351792081
 20
240.064166299
 30
0.0
 11
194.851792081
 21
240.064166299
 31
0.0
  0
LINE
  8
0
  6
CONTINUOUS
 62
     1
 10
177.351792081
 20
240.664166323
 30
0.0
 11
179.351792081
 21
240.064166299
 31
0.0
  0
LINE
  8
0
  6
CONTINUOUS
 62
     1
 10
179.351792081
 20
240.064166299
 30
0.0
 11
177.351792081
 21
239.464166275
 31
0.0
  0
LINE
  8
0
  6
CONTINUOUS
 62
     1
 10
193.851792081
 20
240.664166323
 30
0.0
 11
191.851792081
 21
240.064166299
 31
0.0
  0
LINE
  8
0
  6
CONTINUOUS
 62
     1
 10
191.851792081
 20
240.064166299
 30
0.0
 11
193.851792081
 21
239.464166275
 31
0.0
  0
LINE
  8
0
  6
CONTINUOUS
 62
     1
 10
191.851792081
 20
226.665857667
 30
0.0
 11
191.851792081
 21
242.064166299
 31
0.0
  0
TEXT
  8
0
  6
CONTINUOUS
 62
     1
 10
182.501792177
 20
240.564166299
 30
0.0
 40
3.099999905
  1
２５
 50
0.0
 41
1.0
 51
0.0
  7
KANJI0
  0
LINE
  8
0
  6
CONTINUOUS
 62
     1
 10
191.851792081
 20
226.665857667
 30
0.0
 11
191.851792081
 21
242.064166299
 31
0.0
  0
LINE
  8
0
  6
CONTINUOUS
 62
     1
 10
191.851792081
 20
240.064166299
 30
0.0
 11
266.851778367
 21
240.064166299
 31
0.0
  0
LINE
  8
0
  6
CONTINUOUS
 62
     1
 10
193.851792081
 20
240.664166323
 30
0.0
 11
191.851792081
 21
240.064166299
 31
0.0
  0
LINE
  8
0
  6
CONTINUOUS
 62
     1
 10
191.851792081
 20
240.064166299
 30
0.0
 11
193.851792081
 21
239.464166275
 31
0.0
  0
LINE
  8
0
  6
CONTINUOUS
 62
     1
 10
264.851778367
 20
240.664166323
 30
0.0
 11
266.851778367
 21
240.064166299
 31
0.0
  0
LINE
  8
0
  6
CONTINUOUS
 62
     1
 10
266.851778367
 20
240.064166299
 30
0.0
 11
264.851778367
 21
239.464166275
 31
0.0
  0
LINE
  8
0
  6
CONTINUOUS
 62
     1
 10
266.851778367
 20
224.465875344
 30
0.0
 11
266.851778367
 21
242.064166299
 31
0.0
  0
TEXT
  8
0
  6
CONTINUOUS
 62
     1
 10
224.701785367
 20
240.564166299
 30
0.0
 40
3.099999905
  1
１５０
 50
0.0
 41
1.0
 51
0.0
  7
KANJI0
  0
LINE
  8
0
  6
CONTINUOUS
 62
     1
 10
58.623992331
 20
226.665854413
 30
0.0
 11
58.623992331
 21
242.064166299
 31
0.0
  0
LINE
  8
0
  6
CONTINUOUS
 62
     1
 10
58.623992331
 20
240.064166299
 30
0.0
 11
130.623995585
 21
240.064166299
 31
0.0
  0
LINE
  8
0
  6
CONTINUOUS
 62
     1
 10
60.623992331
 20
240.664166323
 30
0.0
 11
58.623992331
 21
240.064166299
 31
0.0
  0
LINE
  8
0
  6
CONTINUOUS
 62
     1
 10
58.623992331
 20
240.064166299
 30
0.0
 11
60.623992331
 21
239.464166275
 31
0.0
  0
LINE
  8
0
  6
CONTINUOUS
 62
     1
 10
128.623995585
 20
240.664166323
 30
0.0
 11
130.623995585
 21
240.064166299
 31
0.0
  0
LINE
  8
0
  6
CONTINUOUS
 62
     1
 10
130.623995585
 20
240.064166299
 30
0.0
 11
128.623995585
 21
239.464166275
 31
0.0
  0
LINE
  8
0
  6
CONTINUOUS
 62
     1
 10
130.623995585
 20
226.665854413
 30
0.0
 11
130.623995585
 21
242.064166299
 31
0.0
  0
TEXT
  8
0
  6
CONTINUOUS
 62
     1
 10
89.973994101
 20
240.564166299
 30
0.0
 40
3.099999905
  1
１４４
 50
0.0
 41
1.0
 51
0.0
  7
KANJI0
  0
LINE
  8
0
  6
CONTINUOUS
 62
     1
 10
58.623992331
 20
226.665854413
 30
0.0
 11
58.623992331
 21
242.064166299
 31
0.0
  0
LINE
  8
0
  6
CONTINUOUS
 62
     1
 10
61.623992331
 20
240.064166299
 30
0.0
 11
46.849755652
 21
240.064166299
 31
0.0
  0
LINE
  8
0
  6
CONTINUOUS
 62
     1
 10
60.623992331
 20
239.464166275
 30
0.0
 11
58.623992331
 21
240.064166299
 31
0.0
  0
LINE
  8
0
  6
CONTINUOUS
 62
     1
 10
58.623992331
 20
240.064166299
 30
0.0
 11
60.623992331
 21
240.664166323
 31
0.0
  0
LINE
  8
0
  6
CONTINUOUS
 62
     1
 10
55.373992331
 20
239.464166275
 30
0.0
 11
57.373992331
 21
240.064166299
 31
0.0
  0
LINE
  8
0
  6
CONTINUOUS
 62
     1
 10
57.373992331
 20
240.064166299
 30
0.0
 11
55.373992331
 21
240.664166323
 31
0.0
  0
LINE
  8
0
  6
CONTINUOUS
 62
     1
 10
57.373992331
 20
226.665854413
 30
0.0
 11
57.373992331
 21
242.064166299
 31
0.0
  0
TEXT
  8
0
  6
CONTINUOUS
 62
     1
 10
45.782255837
 20
240.814166299
 30
0.0
 40
3.099999905
  1
２．５
 50
0.0
 41
1.0
 51
0.0
  7
KANJI0
  0
LINE
  8
0
  6
CONTINUOUS
 62
     1
 10
130.623995585
 20
226.665854413
 30
0.0
 11
130.623995585
 21
242.064166299
 31
0.0
  0
LINE
  8
0
  6
CONTINUOUS
 62
     1
 10
127.623995585
 20
240.064166299
 30
0.0
 11
143.3245161
 21
240.064166299
 31
0.0
  0
LINE
  8
0
  6
CONTINUOUS
 62
     1
 10
128.623995585
 20
240.664166323
 30
0.0
 11
130.623995585
 21
240.064166299
 31
0.0
  0
LINE
  8
0
  6
CONTINUOUS
 62
     1
 10
130.623995585
 20
240.064166299
 30
0.0
 11
128.623995585
 21
239.464166275
 31
0.0
  0
LINE
  8
0
  6
CONTINUOUS
 62
     1
 10
134.374007029
 20
240.664166323
 30
0.0
 11
132.374007029
 21
240.064166299
 31
0.0
  0
LINE
  8
0
  6
CONTINUOUS
 62
     1
 10
132.374007029
 20
240.064166299
 30
0.0
 11
134.374007029
 21
239.464166275
 31
0.0
  0
LINE
  8
0
  6
CONTINUOUS
 62
     1
 10
132.374007029
 20
196.715854413
 30
0.0
 11
132.374007029
 21
242.064166299
 31
0.0
  0
TEXT
  8
0
  6
CONTINUOUS
 62
     1
 10
135.092016387
 20
240.814166299
 30
0.0
 40
3.099999905
  1
３．５
 50
0.0
 41
1.0
 51
0.0
  7
KANJI0
  0
LINE
  8
0
  6
CONTINUOUS
 62
     1
 10
131.423995597
 20
225.865854401
 30
0.0
 11
148.579006741
 21
225.865854401
 31
0.0
  0
LINE
  8
0
  6
CONTINUOUS
 62
     1
 10
146.579006741
 20
225.865854401
 30
0.0
 11
146.579006741
 21
153.865854401
 31
0.0
  0
LINE
  8
0
  6
CONTINUOUS
 62
     1
 10
147.179006765
 20
223.865854401
 30
0.0
 11
146.579006741
 21
225.865854401
 31
0.0
  0
LINE
  8
0
  6
CONTINUOUS
 62
     1
 10
146.579006741
 20
225.865854401
 30
0.0
 11
145.979006717
 21
223.865854401
 31
0.0
  0
LINE
  8
0
  6
CONTINUOUS
 62
     1
 10
147.179006765
 20
155.865854401
 30
0.0
 11
146.579006741
 21
153.865854401
 31
0.0
  0
LINE
  8
0
  6
CONTINUOUS
 62
     1
 10
146.579006741
 20
153.865854401
 30
0.0
 11
145.979006717
 21
155.865854401
 31
0.0
  0
LINE
  8
0
  6
CONTINUOUS
 62
     1
 10
131.423995597
 20
153.865854401
 30
0.0
 11
148.579006741
 21
153.865854401
 31
0.0
  0
TEXT
  8
0
  6
CONTINUOUS
 62
     1
 10
146.079006741
 20
185.215854544
 30
0.0
 40
3.099999905
  1
１４４
 50
90.0
 41
1.0
 51
0.0
  7
KANJI0
  0
LINE
  8
0
  6
CONTINUOUS
 62
     1
 10
306.272677598
 20
224.065853799
 30
0.0
 11
374.172679649
 21
224.065853799
 31
0.0
  0
LINE
  8
0
  6
CONTINUOUS
 62
     1
 10
306.422676996
 20
223.915875519
 30
0.0
 11
374.022676996
 21
223.915875519
 31
0.0
  0
LINE
  8
0
  6
CONTINUOUS
 62
     1
 10
336.222676996
 20
224.915874917
 30
0.0
 11
336.222676996
 21
223.915874917
 31
0.0
  0
LINE
  8
0
  6
CONTINUOUS
 62
     1
 10
347.722683505
 20
154.815854401
 30
0.0
 11
332.722683505
 21
154.815854401
 31
0.0
  0
LINE
  8
0
  6
CONTINUOUS
 62
     1
 10
334.472683505
 20
150.815854401
 30
0.0
 11
334.472683505
 21
154.815854401
 31
0.0
  0
LINE
  8
0
  6
CONTINUOUS
 62
     1
 10
334.472683505
 20
152.8158544
 30
0.0
 11
333.472683505
 21
152.8158544
 31
0.0
  0
LINE
  8
0
  6
CONTINUOUS
 62
     1
 10
334.472683505
 20
153.315854401
 30
0.0
 11
333.472683505
 21
153.315854401
 31
0.0
  0
LINE
  8
0
  6
CONTINUOUS
 62
     1
 10
345.972683505
 20
150.815854401
 30
0.0
 11
345.972683505
 21
154.815854401
 31
0.0
  0
LINE
  8
0
  6
CONTINUOUS
 62
     1
 10
346.972683505
 20
153.315854401
 30
0.0
 11
345.972683505
 21
153.315854401
 31
0.0
  0
LINE
  8
0
  6
CONTINUOUS
 62
     1
 10
345.972676996
 20
228.915874917
 30
0.0
 11
345.972676996
 21
224.915874917
 31
0.0
  0
LINE
  8
0
  6
CONTINUOUS
 62
     1
 10
345.972676996
 20
226.915874917
 30
0.0
 11
346.972676996
 21
226.915874917
 31
0.0
  0
LINE
  8
0
  6
CONTINUOUS
 62
     1
 10
345.972676996
 20
226.415874917
 30
0.0
 11
346.972676997
 21
226.415874917
 31
0.0
  0
LINE
  8
0
  6
CONTINUOUS
 62
     1
 10
334.472676996
 20
228.915874917
 30
0.0
 11
334.472676996
 21
224.915874917
 31
0.0
  0
LINE
  8
0
  6
CONTINUOUS
 62
     1
 10
333.472676996
 20
226.415874917
 30
0.0
 11
334.472676996
 21
226.415874917
 31
0.0
  0
LINE
  8
0
  6
CONTINUOUS
 62
     1
 10
332.722676996
 20
224.915874917
 30
0.0
 11
347.722676996
 21
224.915874917
 31
0.0
  0
LINE
  8
0
  6
CONTINUOUS
 62
     1
 10
341.070832346
 20
227.764030266
 30
0.0
 11
339.449063764
 21
226.142261685
 31
0.0
  0
LINE
  8
0
  6
CONTINUOUS
 62
     1
 10
339.305260593
 20
227.833291321
 30
0.0
 11
341.101788602
 21
226.036763312
 31
0.0
  0
LINE
  8
0
  6
CONTINUOUS
 62
     1
 10
341.022676996
 20
224.915874917
 30
0.0
 11
341.022676996
 21
225.647017163
 31
0.0
  0
LINE
  8
0
  6
CONTINUOUS
 62
     1
 10
339.422676996
 20
224.915874917
 30
0.0
 11
339.422676996
 21
225.647017163
 31
0.0
  0
CIRCLE
  8
0
  6
CONTINUOUS
 62
     1
 10
340.222676996
 20
226.915874917
 30
0.0
 40
1.5
  0
LINE
  8
0
  6
CONTINUOUS
 62
     1
 10
339.422683505
 20
154.815854401
 30
0.0
 11
339.422683505
 21
154.084712155
 31
0.0
  0
LINE
  8
0
  6
CONTINUOUS
 62
     1
 10
341.022683505
 20
154.815854401
 30
0.0
 11
341.022683505
 21
154.084712155
 31
0.0
  0
CIRCLE
  8
0
  6
CONTINUOUS
 62
     1
 10
340.222683505
 20
152.815854401
 30
0.0
 40
1.5
  0
LINE
  8
0
  6
CONTINUOUS
 62
     1
 10
339.374528156
 20
151.967699052
 30
0.0
 11
340.996296737
 21
153.589467633
 31
0.0
  0
LINE
  8
0
  6
CONTINUOUS
 62
     1
 10
341.140099909
 20
151.898437997
 30
0.0
 11
339.3435719
 21
153.694966006
 31
0.0
  0
LINE
  8
0
  6
CONTINUOUS
 62
     1
 10
123.748992331
 20
195.365854401
 30
0.0
 11
66.873992331
 21
195.365854401
 31
0.0
  0
LINE
  8
0
  6
CONTINUOUS
 62
     1
 10
65.123992331
 20
195.365854401
 30
0.0
 11
61.924624439
 21
195.365854401
 31
0.0
  0
LINE
  8
0
  6
CONTINUOUS
 62
     1
 10
65.123992331
 20
195.365854401
 30
0.0
 11
65.123992331
 21
185.865854401
 31
0.0
  0
LINE
  8
0
  6
CONTINUOUS
 62
     1
 10
65.123992331
 20
185.865854401
 30
0.0
 11
61.953600129
 21
185.865854401
 31
0.0
  0
LINE
  8
0
  6
CONTINUOUS
 62
     1
 10
64.623992331
 20
185.865854401
 30
0.0
 11
64.623992331
 21
161.115854401
 31
0.0
  0
LINE
  8
0
  6
CONTINUOUS
 62
     1
 10
69.623992331
 20
193.365854401
 30
0.0
 11
66.623992331
 21
193.365854401
 31
0.0
  0
LINE
  8
0
  6
CONTINUOUS
 62
     1
 10
69.623992331
 20
193.365854401
 30
0.0
 11
69.623992331
 21
187.865854401
 31
0.0
  0
LINE
  8
0
  6
CONTINUOUS
 62
     1
 10
120.123992331
 20
193.365854401
 30
0.0
 11
124.623992331
 21
193.365854401
 31
0.0
  0
LINE
  8
0
  6
CONTINUOUS
 62
     1
 10
120.123992331
 20
193.365854401
 30
0.0
 11
120.123992331
 21
187.865854401
 31
0.0
  0
LINE
  8
0
  6
CONTINUOUS
 62
     1
 10
124.623992331
 20
187.865854401
 30
0.0
 11
66.623992331
 21
187.865854401
 31
0.0
  0
LINE
  8
0
  6
CONTINUOUS
 62
     1
 10
124.62399233
 20
181.665854401
 30
0.0
 11
66.623992331
 21
181.665854401
 31
0.0
  0
LINE
  8
0
  6
CONTINUOUS
 62
     1
 10
124.623992331
 20
189.615854401
 30
0.0
 11
125.623992331
 21
189.615854401
 31
0.0
  0
LINE
  8
0
  6
CONTINUOUS
 62
     1
 10
124.623992331
 20
187.615854401
 30
0.0
 11
125.623992331
 21
187.615854401
 31
0.0
  0
LINE
  8
0
  6
CONTINUOUS
 62
     1
 10
124.623992331
 20
186.865854401
 30
0.0
 11
125.623992331
 21
186.865854401
 31
0.0
  0
LINE
  8
0
  6
CONTINUOUS
 62
     1
 10
66.623992331
 20
189.615854401
 30
0.0
 11
65.62399233
 21
189.615854401
 31
0.0
  0
LINE
  8
0
  6
CONTINUOUS
 62
     1
 10
66.623992331
 20
187.615854401
 30
0.0
 11
65.62399233
 21
187.615854401
 31
0.0
  0
LINE
  8
0
  6
CONTINUOUS
 62
     1
 10
66.623992331
 20
186.865854401
 30
0.0
 11
65.62399233
 21
186.865854401
 31
0.0
  0
LINE
  8
0
  6
CONTINUOUS
 62
     1
 10
65.623992331
 20
195.365854401
 30
0.0
 11
66.623992331
 21
195.365854401
 31
0.0
  0
LINE
  8
0
  6
CONTINUOUS
 62
     1
 10
124.623992331
 20
195.365854401
 30
0.0
 11
125.623992331
 21
195.365854401
 31
0.0
  0
LINE
  8
0
  6
CONTINUOUS
 62
     1
 10
119.623992331
 20
175.365854401
 30
0.0
 11
71.623992331
 21
175.365854401
 31
0.0
  0
LINE
  8
0
  6
CONTINUOUS
 62
     1
 10
66.873992331
 20
193.365854401
 30
0.0
 11
66.873992331
 21
195.365854401
 31
0.0
  0
LINE
  8
0
  6
CONTINUOUS
 62
     1
 10
123.748992331
 20
193.365854401
 30
0.0
 11
123.748992331
 21
195.365854401
 31
0.0
  0
LINE
  8
0
  6
CONTINUOUS
 62
     1
 10
66.623992331
 20
161.115854401
 30
0.0
 11
66.623992331
 21
195.365854401
 31
0.0
  0
LINE
  8
0
  6
CONTINUOUS
 62
     1
 10
124.623992331
 20
161.115854401
 30
0.0
 11
124.623992331
 21
195.365854401
 31
0.0
  0
LINE
  8
0
  6
CONTINUOUS
 62
     1
 10
71.623992331
 20
169.471005728
 30
0.0
 11
71.623992331
 21
175.365854401
 31
0.0
  0
LINE
  8
0
  6
CONTINUOUS
 62
     1
 10
119.623992331
 20
169.465854401
 30
0.0
 11
119.623992331
 21
175.365854401
 31
0.0
  0
LINE
  8
0
  6
CONTINUOUS
 62
     1
 10
119.873992331
 20
195.365854401
 30
0.0
 11
69.873992331
 21
195.365854401
 31
0.0
  0
LINE
  8
0
  6
CONTINUOUS
 62
     1
 10
119.873992331
 20
187.865854401
 30
0.0
 11
69.873992331
 21
187.865854401
 31
0.0
  0
LINE
  8
0
  6
CONTINUOUS
 62
     1
 10
119.623992331
 20
175.365854401
 30
0.0
 11
71.623992331
 21
175.365854401
 31
0.0
  0
LINE
  8
0
  6
CONTINUOUS
 62
     1
 10
119.873992331
 20
187.865854401
 30
0.0
 11
119.873992331
 21
193.365854401
 31
0.0
  0
LINE
  8
0
  6
CONTINUOUS
 62
     1
 10
69.873992331
 20
187.865854401
 30
0.0
 11
69.873992331
 21
193.365854401
 31
0.0
  0
LINE
  8
0
  6
CONTINUOUS
 62
     1
 10
71.623992331
 20
161.115854401
 30
0.0
 11
71.623992331
 21
175.365854401
 31
0.0
  0
LINE
  8
0
  6
CONTINUOUS
 62
     1
 10
119.623992331
 20
161.115854401
 30
0.0
 11
119.623992331
 21
175.365854401
 31
0.0
  0
LINE
  8
0
  6
CONTINUOUS
 62
     1
 10
123.748992331
 20
195.365854401
 30
0.0
 11
66.873992331
 21
195.365854401
 31
0.0
  0
LINE
  8
0
  6
CONTINUOUS
 62
     1
 10
66.873992331
 20
193.365854401
 30
0.0
 11
66.873992331
 21
195.365854401
 31
0.0
  0
LINE
  8
0
  6
CONTINUOUS
 62
     1
 10
69.873992331
 20
193.365854401
 30
0.0
 11
66.873992331
 21
193.365854401
 31
0.0
  0
LINE
  8
0
  6
CONTINUOUS
 62
     1
 10
123.748992331
 20
193.365854401
 30
0.0
 11
123.748992331
 21
195.365854401
 31
0.0
  0
LINE
  8
0
  6
CONTINUOUS
 62
     1
 10
119.873992331
 20
193.365854401
 30
0.0
 11
123.748992331
 21
193.365854401
 31
0.0
  0
LINE
  8
0
  6
CONTINUOUS
 62
     1
 10
123.748992331
 20
194.463467954
 30
0.0
 11
66.873992331
 21
194.463467954
 31
0.0
  0
LINE
  8
0
  6
CONTINUOUS
 62
     1
 10
123.748992331
 20
194.463467954
 30
0.0
 11
66.873992331
 21
194.463467954
 31
0.0
  0
LINE
  8
0
  6
CONTINUOUS
 62
     1
 10
65.623992331
 20
161.115854401
 30
0.0
 11
65.623992331
 21
186.865854401
 31
0.0
  0
LINE
  8
0
  6
CONTINUOUS
 62
     1
 10
65.623992331
 20
189.615854401
 30
0.0
 11
65.623992331
 21
195.365854401
 31
0.0
  0
LINE
  8
0
  6
CONTINUOUS
 62
     1
 10
65.62399233
 20
189.615854401
 30
0.0
 11
65.623992331
 21
186.865854401
 31
0.0
  0
LINE
  8
0
  6
CONTINUOUS
 62
     1
 10
125.623992331
 20
161.115854401
 30
0.0
 11
125.623992331
 21
186.865854401
 31
0.0
  0
LINE
  8
0
  6
CONTINUOUS
 62
     1
 10
125.623992331
 20
189.615854401
 30
0.0
 11
125.623992331
 21
195.365854401
 31
0.0
  0
LINE
  8
0
  6
CONTINUOUS
 62
     1
 10
125.623992331
 20
189.615854401
 30
0.0
 11
125.623992331
 21
186.865854401
 31
0.0
  0
LINE
  8
0
  6
CONTINUOUS
 62
     1
 10
61.623980887
 20
198.015854401
 30
0.0
 11
61.623980887
 21
161.615854401
 31
0.0
  0
ARC
  8
0
  6
CONTINUOUS
 62
     1
 10
62.123980887
 20
198.015854401
 30
0.0
 40
0.5
 50
90.0
 51
180.0
  0
LINE
  8
0
  6
CONTINUOUS
 62
     1
 10
62.123980887
 20
198.515854401
 30
0.0
 11
127.123995585
 21
198.515854401
 31
0.0
  0
ARC
  8
0
  6
CONTINUOUS
 62
     1
 10
127.123995585
 20
198.015854401
 30
0.0
 40
0.5
 50
0.0
 51
90.0
  0
LINE
  8
0
  6
CONTINUOUS
 62
     1
 10
62.123980887
 20
161.115854401
 30
0.0
 11
127.123995585
 21
161.115854401
 31
0.0
  0
ARC
  8
0
  6
CONTINUOUS
 62
     1
 10
127.123995585
 20
161.615854401
 30
0.0
 40
0.5
 50
270.0
 51
0.0
  0
ARC
  8
0
  6
CONTINUOUS
 62
     1
 10
60.623995585
 20
160.115854401
 30
0.0
 40
0.5
 50
90.0
 51
180.0
  0
ARC
  8
0
  6
CONTINUOUS
 62
     1
 10
62.123980887
 20
161.615854401
 30
0.0
 40
0.5
 50
180.0
 51
270.0
  0
LINE
  8
0
  6
CONTINUOUS
 62
     1
 10
60.623995585
 20
160.615854401
 30
0.0
 11
128.623995585
 21
160.615854401
 31
0.0
  0
LINE
  8
0
  6
CONTINUOUS
 62
     1
 10
83.374071436
 20
218.165856459
 30
0.0
 11
122.874007029
 21
218.165856459
 31
0.0
  0
LINE
  8
0
  6
CONTINUOUS
 62
     1
 10
83.374071436
 20
207.165856459
 30
0.0
 11
122.874007029
 21
207.165856459
 31
0.0
  0
LINE
  8
0
  6
CONTINUOUS
 62
     1
 10
123.374007029
 20
207.665856459
 30
0.0
 11
123.374007029
 21
217.665856459
 31
0.0
  0
LINE
  8
0
  6
CONTINUOUS
 62
     1
 10
82.874006436
 20
217.665856459
 30
0.0
 11
82.874006436
 21
207.665856459
 31
0.0
  0
ARC
  8
0
  6
CONTINUOUS
 62
     1
 10
83.374006436
 20
207.665856459
 30
0.0
 40
0.5
 50
180.0
 51
270.0
  0
ARC
  8
0
  6
CONTINUOUS
 62
     1
 10
122.874007029
 20
207.665856459
 30
0.0
 40
0.5
 50
270.0
 51
0.0
  0
ARC
  8
0
  6
CONTINUOUS
 62
     1
 10
122.874007029
 20
217.665856459
 30
0.0
 40
0.5
 50
0.0
 51
90.0
  0
ARC
  8
0
  6
CONTINUOUS
 62
     1
 10
83.374006436
 20
217.665856459
 30
0.0
 40
0.5
 50
90.0
 51
180.0
  0
TEXT
  8
0
  6
CONTINUOUS
 62
     1
 10
76.774006472
 20
201.185880593
 30
0.0
 40
1.399999976
  1
ＡＬＭ
 50
0.0
 41
1.0
 51
0.0
  7
KANJI3
  0
LINE
  8
0
  6
CONTINUOUS
 62
     1
 10
72.374006436
 20
208.165856459
 30
0.0
 11
77.874006436
 21
208.165856459
 31
0.0
  0
LINE
  8
0
  6
CONTINUOUS
 62
     1
 10
77.874006436
 20
217.165856459
 30
0.0
 11
72.374006436
 21
217.165856459
 31
0.0
  0
LINE
  8
0
  6
CONTINUOUS
 62
     1
 10
71.874006436
 20
216.665856459
 30
0.0
 11
71.874006436
 21
208.665856459
 31
0.0
  0
LINE
  8
0
  6
CONTINUOUS
 62
     1
 10
78.374006436
 20
208.665856459
 30
0.0
 11
78.374006436
 21
216.665856459
 31
0.0
  0
TEXT
  8
0
  6
CONTINUOUS
 62
     1
 10
71.624006495
 20
218.935856476
 30
0.0
 40
1.399999976
  1
ＣＨ，ＮＯ
 50
0.0
 41
1.0
 51
0.0
  7
KANJI3
  0
TEXT
  8
0
  6
CONTINUOUS
 62
     1
 10
100.32400928
 20
218.935856476
 30
0.0
 40
1.399999976
  1
ＤＡＴＡ
 50
0.0
 41
1.0
 51
0.0
  7
KANJI3
  0
ARC
  8
0
  6
CONTINUOUS
 62
     1
 10
72.374006436
 20
208.665856459
 30
0.0
 40
0.5
 50
180.0
 51
270.0
  0
ARC
  8
0
  6
CONTINUOUS
 62
     1
 10
77.874006436
 20
208.665856459
 30
0.0
 40
0.5
 50
270.0
 51
0.0
  0
ARC
  8
0
  6
CONTINUOUS
 62
     1
 10
77.874006436
 20
216.665856459
 30
0.0
 40
0.5
 50
0.0
 51
90.0
  0
ARC
  8
0
  6
CONTINUOUS
 62
     1
 10
72.374006436
 20
216.665856459
 30
0.0
 40
0.5
 50
90.0
 51
180.0
  0
LINE
  8
0
  6
CONTINUOUS
 62
     1
 10
77.974006436
 20
204.540856459
 30
0.0
 11
79.774006436
 21
204.540856459
 31
0.0
  0
LINE
  8
0
  6
CONTINUOUS
 62
     1
 10
77.974006436
 20
203.790856459
 30
0.0
 11
79.774006436
 21
203.790856459
 31
0.0
  0
ARC
  8
0
  6
CONTINUOUS
 62
     1
 10
128.574007029
 20
221.865854401
 30
0.0
 40
0.5
 50
0.0
 51
90.0
  0
ARC
  8
0
  6
CONTINUOUS
 62
     1
 10
60.674007029
 20
199.965856459
 30
0.0
 40
0.5
 50
180.0
 51
270.0
  0
LINE
  8
0
  6
CONTINUOUS
 62
     1
 10
60.674007029
 20
199.465856459
 30
0.0
 11
128.574007029
 21
199.465856459
 31
0.0
  0
ARC
  8
0
  6
CONTINUOUS
 62
     1
 10
128.574007029
 20
199.965857061
 30
0.0
 40
0.5
 50
270.0
 51
0.0
  0
LINE
  8
0
  6
CONTINUOUS
 62
     1
 10
62.174007029
 20
218.665856459
 30
0.0
 11
127.074007029
 21
218.665856459
 31
0.0
  0
LINE
  8
0
  6
CONTINUOUS
 62
     1
 10
61.674007029
 20
206.665856459
 30
0.0
 11
127.074007029
 21
206.665856459
 31
0.0
  0
LINE
  8
0
  6
CONTINUOUS
 62
     1
 10
61.674007029
 20
206.665856459
 30
0.0
 11
61.674007029
 21
218.165856459
 31
0.0
  0
LINE
  8
0
  6
CONTINUOUS
 62
     1
 10
127.574007029
 20
218.165856459
 30
0.0
 11
127.574007029
 21
207.165856459
 31
0.0
  0
ARC
  8
0
  6
CONTINUOUS
 62
     1
 10
62.174007029
 20
218.165856459
 30
0.0
 40
0.5
 50
90.0
 51
180.0
  0
ARC
  8
0
  6
CONTINUOUS
 62
     1
 10
127.074007029
 20
218.165856459
 30
0.0
 40
0.5
 50
0.0
 51
90.0
  0
ARC
  8
0
  6
CONTINUOUS
 62
     1
 10
127.074007029
 20
207.165856459
 30
0.0
 40
0.5
 50
270.0
 51
0.0
  0
LINE
  8
0
  6
CONTINUOUS
 62
     1
 10
61.674007029
 20
206.415856459
 30
0.0
 11
82.674007029
 21
206.415856459
 31
0.0
  0
LINE
  8
0
  6
CONTINUOUS
 62
     1
 10
62.174007029
 20
200.465856459
 30
0.0
 11
80.784413475
 21
200.465856459
 31
0.0
  0
LINE
  8
0
  6
CONTINUOUS
 62
     1
 10
61.674007029
 20
206.415856459
 30
0.0
 11
61.674007029
 21
200.915856459
 31
0.0
  0
ARC
  8
0
  6
CONTINUOUS
 62
     1
 10
62.174007029
 20
200.965856459
 30
0.0
 40
0.5
 50
180.0
 51
270.0
  0
LINE
  8
0
  6
CONTINUOUS
 62
     1
 10
79.774006436
 20
204.540856459
 30
0.0
 11
79.774006436
 21
203.790856459
 31
0.0
  0
LINE
  8
0
  6
CONTINUOUS
 62
     1
 10
77.974006436
 20
204.540856459
 30
0.0
 11
77.974006436
 21
203.790856459
 31
0.0
  0
LINE
  8
0
  6
CONTINUOUS
 62
     1
 10
70.474006436
 20
204.540856459
 30
0.0
 11
70.474006436
 21
203.790856459
 31
0.0
  0
LINE
  8
0
  6
CONTINUOUS
 62
     1
 10
70.474006436
 20
204.540856459
 30
0.0
 11
72.274006436
 21
204.540856459
 31
0.0
  0
LINE
  8
0
  6
CONTINUOUS
 62
     1
 10
72.274006436
 20
204.540856459
 30
0.0
 11
72.274006436
 21
203.790856459
 31
0.0
  0
LINE
  8
0
  6
CONTINUOUS
 62
     1
 10
70.474006436
 20
203.790856459
 30
0.0
 11
72.274006436
 21
203.790856459
 31
0.0
  0
LINE
  8
0
  6
CONTINUOUS
 62
     1
 10
82.674007029
 20
206.415856459
 30
0.0
 11
81.269244118
 21
200.843630246
 31
0.0
  0
ARC
  8
0
  6
CONTINUOUS
 62
     1
 10
80.784413475
 20
200.965856459
 30
0.0
 40
0.5
 50
270.0
 51
345.850523914
  0
LINE
  8
0
  6
CONTINUOUS
 62
     1
 10
84.983722179
 20
208.215855578
 30
0.0
 11
88.03000198
 21
208.215855578
 31
0.0
  0
LINE
  8
0
  6
CONTINUOUS
 62
     1
 10
88.965569357
 20
209.000889873
 30
0.0
 11
89.504119305
 21
212.055159551
 31
0.0
  0
LINE
  8
0
  6
CONTINUOUS
 62
     1
 10
89.724917281
 20
213.307367565
 30
0.0
 11
90.199856144
 21
216.000880717
 31
0.0
  0
LINE
  8
0
  6
CONTINUOUS
 62
     1
 10
86.218008967
 20
217.115846423
 30
0.0
 11
89.264288768
 21
217.115846423
 31
0.0
  0
LINE
  8
0
  6
CONTINUOUS
 62
     1
 10
84.048154802
 20
209.330821284
 30
0.0
 11
84.523095591
 21
212.024345353
 31
0.0
  0
LINE
  8
0
  6
CONTINUOUS
 62
     1
 10
84.743893567
 20
213.276553368
 30
0.0
 11
85.28244159
 21
216.330812129
 31
0.0
  0
LINE
  8
0
  6
CONTINUOUS
 62
     1
 10
85.082166613
 20
209.115855578
 30
0.0
 11
87.945214644
 21
209.115855578
 31
0.0
  0
LINE
  8
0
  6
CONTINUOUS
 62
     1
 10
84.964229649
 20
209.343246536
 30
0.0
 11
85.442412904
 21
212.055159551
 31
0.0
  0
LINE
  8
0
  6
CONTINUOUS
 62
     1
 10
88.10661878
 20
209.312432577
 30
0.0
 11
88.584801993
 21
212.024345353
 31
0.0
  0
LINE
  8
0
  6
CONTINUOUS
 62
     1
 10
85.823907788
 20
213.115856459
 30
0.0
 11
88.614088863
 21
213.115856459
 31
0.0
  0
LINE
  8
0
  6
CONTINUOUS
 62
     1
 10
85.633924009
 20
212.215856459
 30
0.0
 11
88.424105084
 21
212.215856459
 31
0.0
  0
LINE
  8
0
  6
CONTINUOUS
 62
     1
 10
86.302796303
 20
216.215846423
 30
0.0
 11
89.165844333
 21
216.215846423
 31
0.0
  0
LINE
  8
0
  6
CONTINUOUS
 62
     1
 10
85.663210879
 20
213.307367565
 30
0.0
 11
86.141392167
 21
216.019269424
 31
0.0
  0
LINE
  8
0
  6
CONTINUOUS
 62
     1
 10
88.805599968
 20
213.276553368
 30
0.0
 11
89.283781298
 21
215.988455466
 31
0.0
  0
LINE
  8
0
  6
CONTINUOUS
 62
     1
 10
85.077746137
 20
212.489752452
 30
0.0
 11
84.523095591
 21
212.024345353
 31
0.0
  0
LINE
  8
0
  6
CONTINUOUS
 62
     1
 10
85.077746137
 20
212.489752452
 30
0.0
 11
85.442412904
 21
212.055159551
 31
0.0
  0
LINE
  8
0
  6
CONTINUOUS
 62
     1
 10
84.743893567
 20
213.276553368
 30
0.0
 11
85.108560334
 21
212.841960466
 31
0.0
  0
LINE
  8
0
  6
CONTINUOUS
 62
     1
 10
85.663210879
 20
213.307367565
 30
0.0
 11
85.108560334
 21
212.841960466
 31
0.0
  0
LINE
  8
0
  6
CONTINUOUS
 62
     1
 10
85.823907788
 20
213.115856459
 30
0.0
 11
85.269257242
 21
212.650449361
 31
0.0
  0
LINE
  8
0
  6
CONTINUOUS
 62
     1
 10
85.269257242
 20
212.650449361
 30
0.0
 11
85.633924009
 21
212.215856459
 31
0.0
  0
LINE
  8
0
  6
CONTINUOUS
 62
     1
 10
88.805599968
 20
213.276553368
 30
0.0
 11
89.170266735
 21
212.841960466
 31
0.0
  0
LINE
  8
0
  6
CONTINUOUS
 62
     1
 10
88.97875563
 20
212.681263558
 30
0.0
 11
88.424105084
 21
212.215856459
 31
0.0
  0
LINE
  8
0
  6
CONTINUOUS
 62
     1
 10
89.724917281
 20
213.307367565
 30
0.0
 11
89.170266735
 21
212.841960466
 31
0.0
  0
LINE
  8
0
  6
CONTINUOUS
 62
     1
 10
89.139452538
 20
212.489752452
 30
0.0
 11
88.584801993
 21
212.024345353
 31
0.0
  0
LINE
  8
0
  6
CONTINUOUS
 62
     1
 10
88.614088863
 20
213.115856459
 30
0.0
 11
88.97875563
 21
212.681263558
 31
0.0
  0
LINE
  8
0
  6
CONTINUOUS
 62
     1
 10
89.139452538
 20
212.489752452
 30
0.0
 11
89.504119305
 21
212.055159551
 31
0.0
  0
LINE
  8
0
  6
CONTINUOUS
 62
     1
 10
85.6945886
 20
216.940680171
 30
0.0
 11
86.302796303
 21
216.215846423
 31
0.0
  0
LINE
  8
0
  6
CONTINUOUS
 62
     1
 10
85.50759977
 20
216.774593825
 30
0.0
 11
86.141392167
 21
216.019269424
 31
0.0
  0
LINE
  8
0
  6
CONTINUOUS
 62
     1
 10
89.283781298
 20
215.988455466
 30
0.0
 11
90.057663121
 21
216.637819389
 31
0.0
  0
LINE
  8
0
  6
CONTINUOUS
 62
     1
 10
89.165844333
 20
216.215846423
 30
0.0
 11
89.90148794
 21
216.833124674
 31
0.0
  0
LINE
  8
0
  6
CONTINUOUS
 62
     1
 10
84.190347825
 20
208.693882613
 30
0.0
 11
84.964229649
 21
209.343246536
 31
0.0
  0
LINE
  8
0
  6
CONTINUOUS
 62
     1
 10
84.346523007
 20
208.498577328
 30
0.0
 11
85.082166613
 21
209.115855578
 31
0.0
  0
LINE
  8
0
  6
CONTINUOUS
 62
     1
 10
88.10661878
 20
209.312432577
 30
0.0
 11
88.740411177
 21
208.557108177
 31
0.0
  0
LINE
  8
0
  6
CONTINUOUS
 62
     1
 10
87.945214644
 20
209.115855578
 30
0.0
 11
88.553422347
 21
208.39102183
 31
0.0
  0
CIRCLE
  8
0
  6
CONTINUOUS
 62
     1
 10
90.224006436
 20
208.565856459
 30
0.0
 40
0.5
  0
ARC
  8
0
  6
CONTINUOUS
 62
     1
 10
86.259963951
 20
216.115846423
 30
0.0
 40
1.0
 50
90.0
 51
124.428360413
  0
ARC
  8
0
  6
CONTINUOUS
 62
     1
 10
86.259963951
 20
216.115846423
 30
0.0
 40
1.0
 50
138.795587664
 51
170.000003673
  0
ARC
  8
0
  6
CONTINUOUS
 62
     1
 10
89.204701092
 20
216.115846423
 30
0.0
 40
1.0
 50
350.000003673
 51
31.464687416
  0
ARC
  8
0
  6
CONTINUOUS
 62
     1
 10
89.204701092
 20
216.115846423
 30
0.0
 40
1.0
 50
45.830222548
 51
90.0
  0
ARC
  8
0
  6
CONTINUOUS
 62
     1
 10
85.043309855
 20
209.215855578
 30
0.0
 40
1.0
 50
170.000003673
 51
211.464687416
  0
ARC
  8
0
  6
CONTINUOUS
 62
     1
 10
85.043309855
 20
209.215855578
 30
0.0
 40
1.0
 50
225.830222548
 51
270.0
  0
ARC
  8
0
  6
CONTINUOUS
 62
     1
 10
87.988046996
 20
209.215855578
 30
0.0
 40
1.0
 50
270.0
 51
304.428360413
  0
ARC
  8
0
  6
CONTINUOUS
 62
     1
 10
87.988046996
 20
209.215855578
 30
0.0
 40
1.0
 50
318.795587664
 51
350.000003673
  0
LINE
  8
0
  6
CONTINUOUS
 62
     1
 10
92.983721077
 20
208.215855578
 30
0.0
 11
96.030000878
 21
208.215855578
 31
0.0
  0
LINE
  8
0
  6
CONTINUOUS
 62
     1
 10
96.965568255
 20
209.000889873
 30
0.0
 11
97.504118204
 21
212.055159551
 31
0.0
  0
LINE
  8
0
  6
CONTINUOUS
 62
     1
 10
97.724916179
 20
213.307367565
 30
0.0
 11
98.199855043
 21
216.000880717
 31
0.0
  0
LINE
  8
0
  6
CONTINUOUS
 62
     1
 10
94.218007865
 20
217.115846423
 30
0.0
 11
97.264287666
 21
217.115846423
 31
0.0
  0
LINE
  8
0
  6
CONTINUOUS
 62
     1
 10
92.048153701
 20
209.330821284
 30
0.0
 11
92.523094489
 21
212.024345353
 31
0.0
  0
LINE
  8
0
  6
CONTINUOUS
 62
     1
 10
92.743892465
 20
213.276553368
 30
0.0
 11
93.282440489
 21
216.330812129
 31
0.0
  0
ARC
  8
0
  6
CONTINUOUS
 62
     1
 10
94.259962849
 20
216.115846423
 30
0.0
 40
1.0
 50
138.795587664
 51
170.000003673
  0
ARC
  8
0
  6
CONTINUOUS
 62
     1
 10
95.988045894
 20
209.215855578
 30
0.0
 40
1.0
 50
270.0
 51
304.428360413
  0
ARC
  8
0
  6
CONTINUOUS
 62
     1
 10
93.043308753
 20
209.215855578
 30
0.0
 40
1.0
 50
225.830222548
 51
270.0
  0
ARC
  8
0
  6
CONTINUOUS
 62
     1
 10
95.988045894
 20
209.215855578
 30
0.0
 40
1.0
 50
318.795587664
 51
350.000003673
  0
ARC
  8
0
  6
CONTINUOUS
 62
     1
 10
93.043308753
 20
209.215855578
 30
0.0
 40
1.0
 50
170.000003673
 51
211.464687416
  0
CIRCLE
  8
0
  6
CONTINUOUS
 62
     1
 10
98.224005334
 20
208.565856459
 30
0.0
 40
0.5
  0
LINE
  8
0
  6
CONTINUOUS
 62
     1
 10
93.082165512
 20
209.115855578
 30
0.0
 11
95.945213542
 21
209.115855578
 31
0.0
  0
LINE
  8
0
  6
CONTINUOUS
 62
     1
 10
92.964228547
 20
209.343246536
 30
0.0
 11
93.442411802
 21
212.055159551
 31
0.0
  0
LINE
  8
0
  6
CONTINUOUS
 62
     1
 10
96.106617678
 20
209.312432577
 30
0.0
 11
96.584800891
 21
212.024345353
 31
0.0
  0
LINE
  8
0
  6
CONTINUOUS
 62
     1
 10
93.823906686
 20
213.115856459
 30
0.0
 11
96.614087761
 21
213.115856459
 31
0.0
  0
LINE
  8
0
  6
CONTINUOUS
 62
     1
 10
93.633922908
 20
212.215856459
 30
0.0
 11
96.424103982
 21
212.215856459
 31
0.0
  0
LINE
  8
0
  6
CONTINUOUS
 62
     1
 10
94.302795201
 20
216.215846423
 30
0.0
 11
97.165843232
 21
216.215846423
 31
0.0
  0
LINE
  8
0
  6
CONTINUOUS
 62
     1
 10
93.663209777
 20
213.307367565
 30
0.0
 11
94.141391065
 21
216.019269424
 31
0.0
  0
LINE
  8
0
  6
CONTINUOUS
 62
     1
 10
96.805598866
 20
213.276553368
 30
0.0
 11
97.283780196
 21
215.988455466
 31
0.0
  0
ARC
  8
0
  6
CONTINUOUS
 62
     1
 10
97.204699991
 20
216.115846423
 30
0.0
 40
1.0
 50
45.830222548
 51
90.0
  0
ARC
  8
0
  6
CONTINUOUS
 62
     1
 10
94.259962849
 20
216.115846423
 30
0.0
 40
1.0
 50
90.0
 51
124.428360413
  0
LINE
  8
0
  6
CONTINUOUS
 62
     1
 10
93.077745035
 20
212.489752452
 30
0.0
 11
92.523094489
 21
212.024345353
 31
0.0
  0
LINE
  8
0
  6
CONTINUOUS
 62
     1
 10
93.077745035
 20
212.489752452
 30
0.0
 11
93.442411802
 21
212.055159551
 31
0.0
  0
LINE
  8
0
  6
CONTINUOUS
 62
     1
 10
92.743892465
 20
213.276553368
 30
0.0
 11
93.108559232
 21
212.841960466
 31
0.0
  0
LINE
  8
0
  6
CONTINUOUS
 62
     1
 10
93.663209777
 20
213.307367565
 30
0.0
 11
93.108559232
 21
212.841960466
 31
0.0
  0
LINE
  8
0
  6
CONTINUOUS
 62
     1
 10
93.823906686
 20
213.115856459
 30
0.0
 11
93.26925614
 21
212.650449361
 31
0.0
  0
LINE
  8
0
  6
CONTINUOUS
 62
     1
 10
93.26925614
 20
212.650449361
 30
0.0
 11
93.633922908
 21
212.215856459
 31
0.0
  0
LINE
  8
0
  6
CONTINUOUS
 62
     1
 10
96.805598866
 20
213.276553368
 30
0.0
 11
97.170265634
 21
212.841960466
 31
0.0
  0
LINE
  8
0
  6
CONTINUOUS
 62
     1
 10
96.978754528
 20
212.681263558
 30
0.0
 11
96.424103982
 21
212.215856459
 31
0.0
  0
LINE
  8
0
  6
CONTINUOUS
 62
     1
 10
97.724916179
 20
213.307367565
 30
0.0
 11
97.170265634
 21
212.841960466
 31
0.0
  0
LINE
  8
0
  6
CONTINUOUS
 62
     1
 10
97.139451436
 20
212.489752452
 30
0.0
 11
96.584800891
 21
212.024345353
 31
0.0
  0
LINE
  8
0
  6
CONTINUOUS
 62
     1
 10
96.614087761
 20
213.115856459
 30
0.0
 11
96.978754528
 21
212.681263558
 31
0.0
  0
LINE
  8
0
  6
CONTINUOUS
 62
     1
 10
97.139451436
 20
212.489752452
 30
0.0
 11
97.504118204
 21
212.055159551
 31
0.0
  0
LINE
  8
0
  6
CONTINUOUS
 62
     1
 10
93.694587498
 20
216.940680171
 30
0.0
 11
94.302795201
 21
216.215846423
 31
0.0
  0
LINE
  8
0
  6
CONTINUOUS
 62
     1
 10
93.507598668
 20
216.774593825
 30
0.0
 11
94.141391065
 21
216.019269424
 31
0.0
  0
LINE
  8
0
  6
CONTINUOUS
 62
     1
 10
97.283780196
 20
215.988455466
 30
0.0
 11
98.05766202
 21
216.637819389
 31
0.0
  0
LINE
  8
0
  6
CONTINUOUS
 62
     1
 10
97.165843232
 20
216.215846423
 30
0.0
 11
97.901486838
 21
216.833124674
 31
0.0
  0
LINE
  8
0
  6
CONTINUOUS
 62
     1
 10
92.190346724
 20
208.693882613
 30
0.0
 11
92.964228547
 21
209.343246536
 31
0.0
  0
LINE
  8
0
  6
CONTINUOUS
 62
     1
 10
92.346521905
 20
208.498577328
 30
0.0
 11
93.082165512
 21
209.115855578
 31
0.0
  0
LINE
  8
0
  6
CONTINUOUS
 62
     1
 10
96.106617678
 20
209.312432577
 30
0.0
 11
96.740410075
 21
208.557108177
 31
0.0
  0
LINE
  8
0
  6
CONTINUOUS
 62
     1
 10
95.945213542
 20
209.115855578
 30
0.0
 11
96.553421245
 21
208.39102183
 31
0.0
  0
ARC
  8
0
  6
CONTINUOUS
 62
     1
 10
97.204699991
 20
216.115846423
 30
0.0
 40
1.0
 50
350.000003673
 51
31.464687416
  0
LINE
  8
0
  6
CONTINUOUS
 62
     1
 10
100.983724975
 20
208.215855578
 30
0.0
 11
104.030004777
 21
208.215855578
 31
0.0
  0
LINE
  8
0
  6
CONTINUOUS
 62
     1
 10
104.965572153
 20
209.000889873
 30
0.0
 11
105.504122102
 21
212.055159551
 31
0.0
  0
LINE
  8
0
  6
CONTINUOUS
 62
     1
 10
105.724920077
 20
213.307367565
 30
0.0
 11
106.199858941
 21
216.000880717
 31
0.0
  0
LINE
  8
0
  6
CONTINUOUS
 62
     1
 10
102.218011763
 20
217.115846423
 30
0.0
 11
105.264291565
 21
217.115846423
 31
0.0
  0
LINE
  8
0
  6
CONTINUOUS
 62
     1
 10
100.048157599
 20
209.330821284
 30
0.0
 11
100.523098388
 21
212.024345353
 31
0.0
  0
LINE
  8
0
  6
CONTINUOUS
 62
     1
 10
100.743896363
 20
213.276553368
 30
0.0
 11
101.282444387
 21
216.330812129
 31
0.0
  0
ARC
  8
0
  6
CONTINUOUS
 62
     1
 10
102.259966748
 20
216.115846423
 30
0.0
 40
1.0
 50
138.795587664
 51
170.000003673
  0
ARC
  8
0
  6
CONTINUOUS
 62
     1
 10
103.988049792
 20
209.215855578
 30
0.0
 40
1.0
 50
270.0
 51
304.428360413
  0
ARC
  8
0
  6
CONTINUOUS
 62
     1
 10
101.043312651
 20
209.215855578
 30
0.0
 40
1.0
 50
225.830222548
 51
270.0
  0
ARC
  8
0
  6
CONTINUOUS
 62
     1
 10
103.988049792
 20
209.215855578
 30
0.0
 40
1.0
 50
318.795587664
 51
350.000003673
  0
ARC
  8
0
  6
CONTINUOUS
 62
     1
 10
101.043312651
 20
209.215855578
 30
0.0
 40
1.0
 50
170.000003673
 51
211.464687416
  0
CIRCLE
  8
0
  6
CONTINUOUS
 62
     1
 10
106.224009232
 20
208.565856459
 30
0.0
 40
0.5
  0
LINE
  8
0
  6
CONTINUOUS
 62
     1
 10
101.08216941
 20
209.115855578
 30
0.0
 11
103.94521744
 21
209.115855578
 31
0.0
  0
LINE
  8
0
  6
CONTINUOUS
 62
     1
 10
100.964232446
 20
209.343246536
 30
0.0
 11
101.4424157
 21
212.055159551
 31
0.0
  0
LINE
  8
0
  6
CONTINUOUS
 62
     1
 10
104.106621577
 20
209.312432577
 30
0.0
 11
104.584804789
 21
212.024345353
 31
0.0
  0
LINE
  8
0
  6
CONTINUOUS
 62
     1
 10
101.823910584
 20
213.115856459
 30
0.0
 11
104.614091659
 21
213.115856459
 31
0.0
  0
LINE
  8
0
  6
CONTINUOUS
 62
     1
 10
101.633926806
 20
212.215856459
 30
0.0
 11
104.424107881
 21
212.215856459
 31
0.0
  0
LINE
  8
0
  6
CONTINUOUS
 62
     1
 10
102.3027991
 20
216.215846423
 30
0.0
 11
105.16584713
 21
216.215846423
 31
0.0
  0
LINE
  8
0
  6
CONTINUOUS
 62
     1
 10
101.663213676
 20
213.307367565
 30
0.0
 11
102.141394963
 21
216.019269424
 31
0.0
  0
LINE
  8
0
  6
CONTINUOUS
 62
     1
 10
104.805602765
 20
213.276553368
 30
0.0
 11
105.283784094
 21
215.988455466
 31
0.0
  0
ARC
  8
0
  6
CONTINUOUS
 62
     1
 10
105.204703889
 20
216.115846423
 30
0.0
 40
1.0
 50
45.830222548
 51
90.0
  0
ARC
  8
0
  6
CONTINUOUS
 62
     1
 10
102.259966748
 20
216.115846423
 30
0.0
 40
1.0
 50
90.0
 51
124.428360413
  0
LINE
  8
0
  6
CONTINUOUS
 62
     1
 10
101.077748933
 20
212.489752452
 30
0.0
 11
100.523098388
 21
212.024345353
 31
0.0
  0
LINE
  8
0
  6
CONTINUOUS
 62
     1
 10
101.077748933
 20
212.489752452
 30
0.0
 11
101.4424157
 21
212.055159551
 31
0.0
  0
LINE
  8
0
  6
CONTINUOUS
 62
     1
 10
100.743896363
 20
213.276553368
 30
0.0
 11
101.10856313
 21
212.841960466
 31
0.0
  0
LINE
  8
0
  6
CONTINUOUS
 62
     1
 10
101.663213676
 20
213.307367565
 30
0.0
 11
101.10856313
 21
212.841960466
 31
0.0
  0
LINE
  8
0
  6
CONTINUOUS
 62
     1
 10
101.823910584
 20
213.115856459
 30
0.0
 11
101.269260039
 21
212.650449361
 31
0.0
  0
LINE
  8
0
  6
CONTINUOUS
 62
     1
 10
101.269260039
 20
212.650449361
 30
0.0
 11
101.633926806
 21
212.215856459
 31
0.0
  0
LINE
  8
0
  6
CONTINUOUS
 62
     1
 10
104.805602765
 20
213.276553368
 30
0.0
 11
105.170269532
 21
212.841960466
 31
0.0
  0
LINE
  8
0
  6
CONTINUOUS
 62
     1
 10
104.978758426
 20
212.681263558
 30
0.0
 11
104.424107881
 21
212.215856459
 31
0.0
  0
LINE
  8
0
  6
CONTINUOUS
 62
     1
 10
105.724920077
 20
213.307367565
 30
0.0
 11
105.170269532
 21
212.841960466
 31
0.0
  0
LINE
  8
0
  6
CONTINUOUS
 62
     1
 10
105.139455335
 20
212.489752452
 30
0.0
 11
104.584804789
 21
212.024345353
 31
0.0
  0
LINE
  8
0
  6
CONTINUOUS
 62
     1
 10
104.614091659
 20
213.115856459
 30
0.0
 11
104.978758426
 21
212.681263558
 31
0.0
  0
LINE
  8
0
  6
CONTINUOUS
 62
     1
 10
105.139455335
 20
212.489752452
 30
0.0
 11
105.504122102
 21
212.055159551
 31
0.0
  0
LINE
  8
0
  6
CONTINUOUS
 62
     1
 10
101.694591397
 20
216.940680171
 30
0.0
 11
102.3027991
 21
216.215846423
 31
0.0
  0
LINE
  8
0
  6
CONTINUOUS
 62
     1
 10
101.507602567
 20
216.774593825
 30
0.0
 11
102.141394963
 21
216.019269424
 31
0.0
  0
LINE
  8
0
  6
CONTINUOUS
 62
     1
 10
105.283784094
 20
215.988455466
 30
0.0
 11
106.057665918
 21
216.637819389
 31
0.0
  0
LINE
  8
0
  6
CONTINUOUS
 62
     1
 10
105.16584713
 20
216.215846423
 30
0.0
 11
105.901490737
 21
216.833124674
 31
0.0
  0
LINE
  8
0
  6
CONTINUOUS
 62
     1
 10
100.190350622
 20
208.693882613
 30
0.0
 11
100.964232446
 21
209.343246536
 31
0.0
  0
LINE
  8
0
  6
CONTINUOUS
 62
     1
 10
100.346525803
 20
208.498577328
 30
0.0
 11
101.08216941
 21
209.115855578
 31
0.0
  0
LINE
  8
0
  6
CONTINUOUS
 62
     1
 10
104.106621577
 20
209.312432577
 30
0.0
 11
104.740413974
 21
208.557108177
 31
0.0
  0
LINE
  8
0
  6
CONTINUOUS
 62
     1
 10
103.94521744
 20
209.115855578
 30
0.0
 11
104.553425143
 21
208.39102183
 31
0.0
  0
ARC
  8
0
  6
CONTINUOUS
 62
     1
 10
105.204703889
 20
216.115846423
 30
0.0
 40
1.0
 50
350.000003673
 51
31.464687416
  0
LINE
  8
0
  6
CONTINUOUS
 62
     1
 10
108.983738874
 20
208.215855578
 30
0.0
 11
112.030018675
 21
208.215855578
 31
0.0
  0
LINE
  8
0
  6
CONTINUOUS
 62
     1
 10
112.965586051
 20
209.000889873
 30
0.0
 11
113.504136
 21
212.055159551
 31
0.0
  0
LINE
  8
0
  6
CONTINUOUS
 62
     1
 10
113.724933976
 20
213.307367565
 30
0.0
 11
114.199872839
 21
216.000880717
 31
0.0
  0
LINE
  8
0
  6
CONTINUOUS
 62
     1
 10
110.218025662
 20
217.115846423
 30
0.0
 11
113.264305463
 21
217.115846423
 31
0.0
  0
LINE
  8
0
  6
CONTINUOUS
 62
     1
 10
108.048171497
 20
209.330821284
 30
0.0
 11
108.523112286
 21
212.024345353
 31
0.0
  0
LINE
  8
0
  6
CONTINUOUS
 62
     1
 10
108.743910261
 20
213.276553368
 30
0.0
 11
109.282458285
 21
216.330812129
 31
0.0
  0
ARC
  8
0
  6
CONTINUOUS
 62
     1
 10
110.259980646
 20
216.115846423
 30
0.0
 40
1.0
 50
138.795587664
 51
170.000003673
  0
ARC
  8
0
  6
CONTINUOUS
 62
     1
 10
111.988063691
 20
209.215855578
 30
0.0
 40
1.0
 50
270.0
 51
304.428360413
  0
ARC
  8
0
  6
CONTINUOUS
 62
     1
 10
109.043326549
 20
209.215855578
 30
0.0
 40
1.0
 50
225.830222548
 51
270.0
  0
ARC
  8
0
  6
CONTINUOUS
 62
     1
 10
111.988063691
 20
209.215855578
 30
0.0
 40
1.0
 50
318.795587664
 51
350.000003673
  0
ARC
  8
0
  6
CONTINUOUS
 62
     1
 10
109.043326549
 20
209.215855578
 30
0.0
 40
1.0
 50
170.000003673
 51
211.464687416
  0
CIRCLE
  8
0
  6
CONTINUOUS
 62
     1
 10
114.224023131
 20
208.565856459
 30
0.0
 40
0.5
  0
LINE
  8
0
  6
CONTINUOUS
 62
     1
 10
109.082183308
 20
209.115855578
 30
0.0
 11
111.945231339
 21
209.115855578
 31
0.0
  0
LINE
  8
0
  6
CONTINUOUS
 62
     1
 10
108.964246344
 20
209.343246536
 30
0.0
 11
109.442429599
 21
212.055159551
 31
0.0
  0
LINE
  8
0
  6
CONTINUOUS
 62
     1
 10
112.106635475
 20
209.312432577
 30
0.0
 11
112.584818687
 21
212.024345353
 31
0.0
  0
LINE
  8
0
  6
CONTINUOUS
 62
     1
 10
109.823924483
 20
213.115856459
 30
0.0
 11
112.614105557
 21
213.115856459
 31
0.0
  0
LINE
  8
0
  6
CONTINUOUS
 62
     1
 10
109.633940704
 20
212.215856459
 30
0.0
 11
112.424121779
 21
212.215856459
 31
0.0
  0
LINE
  8
0
  6
CONTINUOUS
 62
     1
 10
110.302812998
 20
216.215846423
 30
0.0
 11
113.165861028
 21
216.215846423
 31
0.0
  0
LINE
  8
0
  6
CONTINUOUS
 62
     1
 10
109.663227574
 20
213.307367565
 30
0.0
 11
110.141408862
 21
216.019269424
 31
0.0
  0
LINE
  8
0
  6
CONTINUOUS
 62
     1
 10
112.805616663
 20
213.276553368
 30
0.0
 11
113.283797993
 21
215.988455466
 31
0.0
  0
ARC
  8
0
  6
CONTINUOUS
 62
     1
 10
113.204717787
 20
216.115846423
 30
0.0
 40
1.0
 50
45.830222548
 51
90.0
  0
ARC
  8
0
  6
CONTINUOUS
 62
     1
 10
110.259980646
 20
216.115846423
 30
0.0
 40
1.0
 50
90.0
 51
124.428360413
  0
LINE
  8
0
  6
CONTINUOUS
 62
     1
 10
109.077762831
 20
212.489752452
 30
0.0
 11
108.523112286
 21
212.024345353
 31
0.0
  0
LINE
  8
0
  6
CONTINUOUS
 62
     1
 10
109.077762831
 20
212.489752452
 30
0.0
 11
109.442429599
 21
212.055159551
 31
0.0
  0
LINE
  8
0
  6
CONTINUOUS
 62
     1
 10
108.743910261
 20
213.276553368
 30
0.0
 11
109.108577029
 21
212.841960466
 31
0.0
  0
LINE
  8
0
  6
CONTINUOUS
 62
     1
 10
109.663227574
 20
213.307367565
 30
0.0
 11
109.108577029
 21
212.841960466
 31
0.0
  0
LINE
  8
0
  6
CONTINUOUS
 62
     1
 10
109.823924483
 20
213.115856459
 30
0.0
 11
109.269273937
 21
212.650449361
 31
0.0
  0
LINE
  8
0
  6
CONTINUOUS
 62
     1
 10
109.269273937
 20
212.650449361
 30
0.0
 11
109.633940704
 21
212.215856459
 31
0.0
  0
LINE
  8
0
  6
CONTINUOUS
 62
     1
 10
112.805616663
 20
213.276553368
 30
0.0
 11
113.17028343
 21
212.841960466
 31
0.0
  0
LINE
  8
0
  6
CONTINUOUS
 62
     1
 10
112.978772325
 20
212.681263558
 30
0.0
 11
112.424121779
 21
212.215856459
 31
0.0
  0
LINE
  8
0
  6
CONTINUOUS
 62
     1
 10
113.724933976
 20
213.307367565
 30
0.0
 11
113.17028343
 21
212.841960466
 31
0.0
  0
LINE
  8
0
  6
CONTINUOUS
 62
     1
 10
113.139469233
 20
212.489752452
 30
0.0
 11
112.584818687
 21
212.024345353
 31
0.0
  0
LINE
  8
0
  6
CONTINUOUS
 62
     1
 10
112.614105557
 20
213.115856459
 30
0.0
 11
112.978772325
 21
212.681263558
 31
0.0
  0
LINE
  8
0
  6
CONTINUOUS
 62
     1
 10
113.139469233
 20
212.489752452
 30
0.0
 11
113.504136
 21
212.055159551
 31
0.0
  0
LINE
  8
0
  6
CONTINUOUS
 62
     1
 10
109.694605295
 20
216.940680171
 30
0.0
 11
110.302812998
 21
216.215846423
 31
0.0
  0
LINE
  8
0
  6
CONTINUOUS
 62
     1
 10
109.507616465
 20
216.774593825
 30
0.0
 11
110.141408862
 21
216.019269424
 31
0.0
  0
LINE
  8
0
  6
CONTINUOUS
 62
     1
 10
113.283797993
 20
215.988455466
 30
0.0
 11
114.057679816
 21
216.637819389
 31
0.0
  0
LINE
  8
0
  6
CONTINUOUS
 62
     1
 10
113.165861028
 20
216.215846423
 30
0.0
 11
113.901504635
 21
216.833124674
 31
0.0
  0
LINE
  8
0
  6
CONTINUOUS
 62
     1
 10
108.19036452
 20
208.693882613
 30
0.0
 11
108.964246344
 21
209.343246536
 31
0.0
  0
LINE
  8
0
  6
CONTINUOUS
 62
     1
 10
108.346539702
 20
208.498577328
 30
0.0
 11
109.082183308
 21
209.115855578
 31
0.0
  0
LINE
  8
0
  6
CONTINUOUS
 62
     1
 10
112.106635475
 20
209.312432577
 30
0.0
 11
112.740427872
 21
208.557108177
 31
0.0
  0
LINE
  8
0
  6
CONTINUOUS
 62
     1
 10
111.945231339
 20
209.115855578
 30
0.0
 11
112.553439042
 21
208.39102183
 31
0.0
  0
ARC
  8
0
  6
CONTINUOUS
 62
     1
 10
113.204717787
 20
216.115846423
 30
0.0
 40
1.0
 50
350.000003673
 51
31.464687416
  0
LINE
  8
0
  6
CONTINUOUS
 62
     1
 10
116.983722772
 20
208.215855578
 30
0.0
 11
120.030002573
 21
208.215855578
 31
0.0
  0
LINE
  8
0
  6
CONTINUOUS
 62
     1
 10
120.96556995
 20
209.000889873
 30
0.0
 11
121.504119898
 21
212.055159551
 31
0.0
  0
LINE
  8
0
  6
CONTINUOUS
 62
     1
 10
121.724917874
 20
213.307367565
 30
0.0
 11
122.199856738
 21
216.000880717
 31
0.0
  0
LINE
  8
0
  6
CONTINUOUS
 62
     1
 10
118.21800956
 20
217.115846423
 30
0.0
 11
121.264289361
 21
217.115846423
 31
0.0
  0
LINE
  8
0
  6
CONTINUOUS
 62
     1
 10
116.048155396
 20
209.330821284
 30
0.0
 11
116.523096184
 21
212.024345353
 31
0.0
  0
LINE
  8
0
  6
CONTINUOUS
 62
     1
 10
116.74389416
 20
213.276553368
 30
0.0
 11
117.282442183
 21
216.330812129
 31
0.0
  0
ARC
  8
0
  6
CONTINUOUS
 62
     1
 10
118.259964544
 20
216.115846423
 30
0.0
 40
1.0
 50
138.795587664
 51
170.000003673
  0
ARC
  8
0
  6
CONTINUOUS
 62
     1
 10
119.988047589
 20
209.215855578
 30
0.0
 40
1.0
 50
270.0
 51
304.428360413
  0
ARC
  8
0
  6
CONTINUOUS
 62
     1
 10
117.043310448
 20
209.215855578
 30
0.0
 40
1.0
 50
225.830222548
 51
270.0
  0
ARC
  8
0
  6
CONTINUOUS
 62
     1
 10
119.988047589
 20
209.215855578
 30
0.0
 40
1.0
 50
318.795587664
 51
350.000003673
  0
ARC
  8
0
  6
CONTINUOUS
 62
     1
 10
117.043310448
 20
209.215855578
 30
0.0
 40
1.0
 50
170.000003673
 51
211.464687416
  0
CIRCLE
  8
0
  6
CONTINUOUS
 62
     1
 10
122.224007029
 20
208.565856459
 30
0.0
 40
0.5
  0
LINE
  8
0
  6
CONTINUOUS
 62
     1
 10
117.082167207
 20
209.115855578
 30
0.0
 11
119.945215237
 21
209.115855578
 31
0.0
  0
LINE
  8
0
  6
CONTINUOUS
 62
     1
 10
116.964230242
 20
209.343246536
 30
0.0
 11
117.442413497
 21
212.055159551
 31
0.0
  0
LINE
  8
0
  6
CONTINUOUS
 62
     1
 10
120.106619373
 20
209.312432577
 30
0.0
 11
120.584802586
 21
212.024345353
 31
0.0
  0
LINE
  8
0
  6
CONTINUOUS
 62
     1
 10
117.823908381
 20
213.115856459
 30
0.0
 11
120.614089456
 21
213.115856459
 31
0.0
  0
LINE
  8
0
  6
CONTINUOUS
 62
     1
 10
117.633924602
 20
212.215856459
 30
0.0
 11
120.424105677
 21
212.215856459
 31
0.0
  0
LINE
  8
0
  6
CONTINUOUS
 62
     1
 10
118.302796896
 20
216.215846423
 30
0.0
 11
121.165844927
 21
216.215846423
 31
0.0
  0
LINE
  8
0
  6
CONTINUOUS
 62
     1
 10
117.663211472
 20
213.307367565
 30
0.0
 11
118.14139276
 21
216.019269424
 31
0.0
  0
LINE
  8
0
  6
CONTINUOUS
 62
     1
 10
120.805600561
 20
213.276553368
 30
0.0
 11
121.283781891
 21
215.988455466
 31
0.0
  0
ARC
  8
0
  6
CONTINUOUS
 62
     1
 10
121.204701685
 20
216.115846423
 30
0.0
 40
1.0
 50
45.830222548
 51
90.0
  0
ARC
  8
0
  6
CONTINUOUS
 62
     1
 10
118.259964544
 20
216.115846423
 30
0.0
 40
1.0
 50
90.0
 51
124.428360413
  0
LINE
  8
0
  6
CONTINUOUS
 62
     1
 10
117.07774673
 20
212.489752452
 30
0.0
 11
116.523096184
 21
212.024345353
 31
0.0
  0
LINE
  8
0
  6
CONTINUOUS
 62
     1
 10
117.07774673
 20
212.489752452
 30
0.0
 11
117.442413497
 21
212.055159551
 31
0.0
  0
LINE
  8
0
  6
CONTINUOUS
 62
     1
 10
116.74389416
 20
213.276553368
 30
0.0
 11
117.108560927
 21
212.841960466
 31
0.0
  0
LINE
  8
0
  6
CONTINUOUS
 62
     1
 10
117.663211472
 20
213.307367565
 30
0.0
 11
117.108560927
 21
212.841960466
 31
0.0
  0
LINE
  8
0
  6
CONTINUOUS
 62
     1
 10
117.823908381
 20
213.115856459
 30
0.0
 11
117.269257835
 21
212.650449361
 31
0.0
  0
LINE
  8
0
  6
CONTINUOUS
 62
     1
 10
117.269257835
 20
212.650449361
 30
0.0
 11
117.633924602
 21
212.215856459
 31
0.0
  0
LINE
  8
0
  6
CONTINUOUS
 62
     1
 10
120.805600561
 20
213.276553368
 30
0.0
 11
121.170267328
 21
212.841960466
 31
0.0
  0
LINE
  8
0
  6
CONTINUOUS
 62
     1
 10
120.978756223
 20
212.681263558
 30
0.0
 11
120.424105677
 21
212.215856459
 31
0.0
  0
LINE
  8
0
  6
CONTINUOUS
 62
     1
 10
121.724917874
 20
213.307367565
 30
0.0
 11
121.170267328
 21
212.841960466
 31
0.0
  0
LINE
  8
0
  6
CONTINUOUS
 62
     1
 10
121.139453131
 20
212.489752452
 30
0.0
 11
120.584802586
 21
212.024345353
 31
0.0
  0
LINE
  8
0
  6
CONTINUOUS
 62
     1
 10
120.614089456
 20
213.115856459
 30
0.0
 11
120.978756223
 21
212.681263558
 31
0.0
  0
LINE
  8
0
  6
CONTINUOUS
 62
     1
 10
121.139453131
 20
212.489752452
 30
0.0
 11
121.504119898
 21
212.055159551
 31
0.0
  0
LINE
  8
0
  6
CONTINUOUS
 62
     1
 10
117.694589193
 20
216.940680171
 30
0.0
 11
118.302796896
 21
216.215846423
 31
0.0
  0
LINE
  8
0
  6
CONTINUOUS
 62
     1
 10
117.507600363
 20
216.774593825
 30
0.0
 11
118.14139276
 21
216.019269424
 31
0.0
  0
LINE
  8
0
  6
CONTINUOUS
 62
     1
 10
121.283781891
 20
215.988455466
 30
0.0
 11
122.057663715
 21
216.637819389
 31
0.0
  0
LINE
  8
0
  6
CONTINUOUS
 62
     1
 10
121.165844927
 20
216.215846423
 30
0.0
 11
121.901488533
 21
216.833124674
 31
0.0
  0
LINE
  8
0
  6
CONTINUOUS
 62
     1
 10
116.190348419
 20
208.693882613
 30
0.0
 11
116.964230242
 21
209.343246536
 31
0.0
  0
LINE
  8
0
  6
CONTINUOUS
 62
     1
 10
116.3465236
 20
208.498577328
 30
0.0
 11
117.082167207
 21
209.115855578
 31
0.0
  0
LINE
  8
0
  6
CONTINUOUS
 62
     1
 10
120.106619373
 20
209.312432577
 30
0.0
 11
120.74041177
 21
208.557108177
 31
0.0
  0
LINE
  8
0
  6
CONTINUOUS
 62
     1
 10
119.945215237
 20
209.115855578
 30
0.0
 11
120.55342294
 21
208.39102183
 31
0.0
  0
ARC
  8
0
  6
CONTINUOUS
 62
     1
 10
121.204701685
 20
216.115846423
 30
0.0
 40
1.0
 50
350.000003673
 51
31.464687416
  0
LINE
  8
0
  6
CONTINUOUS
 62
     1
 10
73.769305088
 20
209.190855774
 30
0.0
 11
75.597072969
 21
209.190855774
 31
0.0
  0
LINE
  8
0
  6
CONTINUOUS
 62
     1
 10
74.594386162
 20
216.140848653
 30
0.0
 11
76.478706286
 21
216.140848653
 31
0.0
  0
LINE
  8
0
  6
CONTINUOUS
 62
     1
 10
73.585459437
 20
212.489752452
 30
0.0
 11
73.120190405
 21
212.099345353
 31
0.0
  0
LINE
  8
0
  6
CONTINUOUS
 62
     1
 10
74.081542666
 20
213.232367565
 30
0.0
 11
73.616273634
 21
212.841960466
 31
0.0
  0
LINE
  8
0
  6
CONTINUOUS
 62
     1
 10
73.314539343
 20
213.201553368
 30
0.0
 11
73.616273634
 21
212.841960466
 31
0.0
  0
LINE
  8
0
  6
CONTINUOUS
 62
     1
 10
73.776970542
 20
212.650449361
 30
0.0
 11
74.078704833
 21
212.290856459
 31
0.0
  0
LINE
  8
0
  6
CONTINUOUS
 62
     1
 10
73.585459437
 20
212.489752452
 30
0.0
 11
73.887193727
 21
212.130159551
 31
0.0
  0
LINE
  8
0
  6
CONTINUOUS
 62
     1
 10
74.242239574
 20
213.040856459
 30
0.0
 11
73.776970542
 21
212.650449361
 31
0.0
  0
LINE
  8
0
  6
CONTINUOUS
 62
     1
 10
73.53492909
 20
210.132366766
 30
0.0
 11
73.887193727
 21
212.130159551
 31
0.0
  0
LINE
  8
0
  6
CONTINUOUS
 62
     1
 10
74.081542666
 20
213.232367565
 30
0.0
 11
74.433805772
 21
215.230151666
 31
0.0
  0
LINE
  8
0
  6
CONTINUOUS
 62
     1
 10
72.809117518
 20
210.335162684
 30
0.0
 11
73.120190405
 21
212.099345353
 31
0.0
  0
LINE
  8
0
  6
CONTINUOUS
 62
     1
 10
73.314539343
 20
213.201553368
 30
0.0
 11
73.690750835
 21
215.335155563
 31
0.0
  0
LINE
  8
0
  6
CONTINUOUS
 62
     1
 10
75.814205602
 20
210.101552761
 30
0.0
 11
76.166470206
 21
212.099345353
 31
0.0
  0
LINE
  8
0
  6
CONTINUOUS
 62
     1
 10
76.360819144
 20
213.201553368
 30
0.0
 11
76.713082285
 21
215.199337661
 31
0.0
  0
LINE
  8
0
  6
CONTINUOUS
 62
     1
 10
76.557260539
 20
209.996548864
 30
0.0
 11
76.933473529
 21
212.130159551
 31
0.0
  0
LINE
  8
0
  6
CONTINUOUS
 62
     1
 10
77.127822467
 20
213.232367565
 30
0.0
 11
77.438893857
 21
214.996541743
 31
0.0
  0
LINE
  8
0
  6
CONTINUOUS
 62
     1
 10
76.169308039
 20
213.040856459
 30
0.0
 11
76.471042329
 21
212.681263558
 31
0.0
  0
LINE
  8
0
  6
CONTINUOUS
 62
     1
 10
76.631739238
 20
212.489752452
 30
0.0
 11
76.933473529
 21
212.130159551
 31
0.0
  0
LINE
  8
0
  6
CONTINUOUS
 62
     1
 10
76.360819144
 20
213.201553368
 30
0.0
 11
76.662553435
 21
212.841960466
 31
0.0
  0
LINE
  8
0
  6
CONTINUOUS
 62
     1
 10
76.631739238
 20
212.489752452
 30
0.0
 11
76.166470206
 21
212.099345353
 31
0.0
  0
LINE
  8
0
  6
CONTINUOUS
 62
     1
 10
76.471042329
 20
212.681263558
 30
0.0
 11
76.005773297
 21
212.290856459
 31
0.0
  0
LINE
  8
0
  6
CONTINUOUS
 62
     1
 10
77.127822467
 20
213.232367565
 30
0.0
 11
76.662553435
 21
212.841960466
 31
0.0
  0
LINE
  8
0
  6
CONTINUOUS
 62
     1
 10
74.12992535
 20
215.981233235
 30
0.0
 11
74.625316812
 21
215.390848653
 31
0.0
  0
LINE
  8
0
  6
CONTINUOUS
 62
     1
 10
73.938414247
 20
215.820536323
 30
0.0
 11
74.433805772
 21
215.230151666
 31
0.0
  0
LINE
  8
0
  6
CONTINUOUS
 62
     1
 10
76.552385241
 20
215.390848653
 30
0.0
 11
77.128600108
 21
215.874350313
 31
0.0
  0
LINE
  8
0
  6
CONTINUOUS
 62
     1
 10
76.713082285
 20
215.199337661
 30
0.0
 11
77.289297023
 21
215.682839213
 31
0.0
  0
LINE
  8
0
  6
CONTINUOUS
 62
     1
 10
72.958714352
 20
209.648865214
 30
0.0
 11
73.53492909
 21
210.132366766
 31
0.0
  0
LINE
  8
0
  6
CONTINUOUS
 62
     1
 10
73.119411267
 20
209.457354114
 30
0.0
 11
73.695626134
 21
209.940855774
 31
0.0
  0
LINE
  8
0
  6
CONTINUOUS
 62
     1
 10
75.814205602
 20
210.101552761
 30
0.0
 11
76.309597127
 21
209.511168104
 31
0.0
  0
LINE
  8
0
  6
CONTINUOUS
 62
     1
 10
75.622694562
 20
209.940855774
 30
0.0
 11
76.118086025
 21
209.350471192
 31
0.0
  0
LINE
  8
0
  6
CONTINUOUS
 62
     1
 10
73.695626134
 20
209.940855774
 30
0.0
 11
75.622694562
 21
209.940855774
 31
0.0
  0
LINE
  8
0
  6
CONTINUOUS
 62
     1
 10
74.625316812
 20
215.390848653
 30
0.0
 11
76.552385241
 21
215.390848653
 31
0.0
  0
LINE
  8
0
  6
CONTINUOUS
 62
     1
 10
74.242239574
 20
213.040856459
 30
0.0
 11
76.169308039
 21
213.040856459
 31
0.0
  0
LINE
  8
0
  6
CONTINUOUS
 62
     1
 10
74.078704833
 20
212.290856459
 30
0.0
 11
76.005773297
 21
212.290856459
 31
0.0
  0
CIRCLE
  8
0
  6
CONTINUOUS
 62
     1
 10
77.535117547
 20
209.47696757
 30
0.0
 40
0.5
  0
ARC
  8
0
  6
CONTINUOUS
 62
     1
 10
74.671915898
 20
215.140848653
 30
0.0
 40
1.0
 50
90.0
 51
122.819247148
  0
ARC
  8
0
  6
CONTINUOUS
 62
     1
 10
74.671915898
 20
215.140848653
 30
0.0
 40
1.0
 50
137.180758711
 51
170.000003673
  0
ARC
  8
0
  6
CONTINUOUS
 62
     1
 10
73.799098926
 20
210.190855774
 30
0.0
 40
1.0
 50
170.000003673
 51
212.819247958
  0
ARC
  8
0
  6
CONTINUOUS
 62
     1
 10
73.799098926
 20
210.190855774
 30
0.0
 40
1.0
 50
227.180759521
 51
270.0
  0
ARC
  8
0
  6
CONTINUOUS
 62
     1
 10
75.576095477
 20
210.190855774
 30
0.0
 40
1.0
 50
270.0
 51
302.819247148
  0
ARC
  8
0
  6
CONTINUOUS
 62
     1
 10
75.576095477
 20
210.190855774
 30
0.0
 40
1.0
 50
317.180758711
 51
350.000003673
  0
ARC
  8
0
  6
CONTINUOUS
 62
     1
 10
76.448912449
 20
215.140848653
 30
0.0
 40
1.0
 50
350.000003673
 51
32.819247958
  0
ARC
  8
0
  6
CONTINUOUS
 62
     1
 10
76.448912449
 20
215.140848653
 30
0.0
 40
1.0
 50
47.180759521
 51
90.0
  0
CIRCLE
  8
0
  6
CONTINUOUS
 62
     1
 10
87.124006436
 20
203.165856459
 30
0.0
 40
1.5
  0
CIRCLE
  8
0
  6
CONTINUOUS
 62
     1
 10
95.124055334
 20
203.165856459
 30
0.0
 40
1.5
  0
CIRCLE
  8
0
  6
CONTINUOUS
 62
     1
 10
103.124039232
 20
203.165856459
 30
0.0
 40
1.5
  0
CIRCLE
  8
0
  6
CONTINUOUS
 62
     1
 10
111.124023131
 20
203.165856459
 30
0.0
 40
1.5
  0
LINE
  8
0
  6
CONTINUOUS
 62
     1
 10
81.124006436
 20
214.040846423
 30
0.0
 11
81.124006436
 21
215.290846423
 31
0.0
  0
LINE
  8
0
  6
CONTINUOUS
 62
     1
 10
80.124006436
 20
215.290846423
 30
0.0
 11
80.124006436
 21
214.040846423
 31
0.0
  0
LINE
  8
0
  6
CONTINUOUS
 62
     1
 10
80.124006436
 20
210.040855578
 30
0.0
 11
81.124006436
 21
210.040855578
 31
0.0
  0
LINE
  8
0
  6
CONTINUOUS
 62
     1
 10
81.124006436
 20
210.040855578
 30
0.0
 11
81.124006436
 21
210.290855578
 31
0.0
  0
LINE
  8
0
  6
CONTINUOUS
 62
     1
 10
80.374006436
 20
211.290855578
 30
0.0
 11
80.124006436
 21
211.290855578
 31
0.0
  0
LINE
  8
0
  6
CONTINUOUS
 62
     1
 10
80.124006436
 20
211.290855578
 30
0.0
 11
80.124006436
 21
210.040855578
 31
0.0
  0
LINE
  8
0
  6
CONTINUOUS
 62
     1
 10
80.374006436
 20
214.540846423
 30
0.0
 11
80.874006436
 21
214.540846423
 31
0.0
  0
LINE
  8
0
  6
CONTINUOUS
 62
     1
 10
80.374006436
 20
214.790846423
 30
0.0
 11
80.874006436
 21
214.790846423
 31
0.0
  0
LINE
  8
0
  6
CONTINUOUS
 62
     1
 10
80.374006436
 20
211.290855578
 30
0.0
 11
80.374006436
 21
210.290855578
 31
0.0
  0
LINE
  8
0
  6
CONTINUOUS
 62
     1
 10
80.374006436
 20
210.290855578
 30
0.0
 11
81.124006436
 21
210.290855578
 31
0.0
  0
LINE
  8
0
  6
CONTINUOUS
 62
     1
 10
80.874006436
 20
214.040846423
 30
0.0
 11
80.874006436
 21
214.540846423
 31
0.0
  0
LINE
  8
0
  6
CONTINUOUS
 62
     1
 10
80.874006436
 20
214.790846423
 30
0.0
 11
80.874006436
 21
215.290846423
 31
0.0
  0
LINE
  8
0
  6
CONTINUOUS
 62
     1
 10
80.374006436
 20
214.540846423
 30
0.0
 11
80.374006436
 21
214.040846423
 31
0.0
  0
LINE
  8
0
  6
CONTINUOUS
 62
     1
 10
80.374006436
 20
215.290846423
 30
0.0
 11
80.374006436
 21
214.790846423
 31
0.0
  0
LINE
  8
0
  6
CONTINUOUS
 62
     1
 10
80.374006436
 20
215.290846423
 30
0.0
 11
80.124006436
 21
215.290846423
 31
0.0
  0
LINE
  8
0
  6
CONTINUOUS
 62
     1
 10
81.124006436
 20
215.290846423
 30
0.0
 11
80.874006436
 21
215.290846423
 31
0.0
  0
LINE
  8
0
  6
CONTINUOUS
 62
     1
 10
80.124006436
 20
214.040846423
 30
0.0
 11
80.374006436
 21
214.040846423
 31
0.0
  0
LINE
  8
0
  6
CONTINUOUS
 62
     1
 10
80.874006436
 20
214.040846423
 30
0.0
 11
81.124006436
 21
214.040846423
 31
0.0
  0
LINE
  8
0
  6
CONTINUOUS
 62
     1
 10
103.624039233
 20
205.015856459
 30
0.0
 11
102.624039233
 21
205.015856459
 31
0.0
  0
LINE
  8
0
  6
CONTINUOUS
 62
     1
 10
103.124039233
 20
205.881881863
 30
0.0
 11
102.624039233
 21
205.015856459
 31
0.0
  0
LINE
  8
0
  6
CONTINUOUS
 62
     1
 10
103.124039233
 20
205.881881863
 30
0.0
 11
103.624039233
 21
205.015856459
 31
0.0
  0
LINE
  8
0
  6
CONTINUOUS
 62
     1
 10
110.724023131
 20
204.915856459
 30
0.0
 11
110.724023131
 21
205.915856459
 31
0.0
  0
LINE
  8
0
  6
CONTINUOUS
 62
     1
 10
111.590048535
 20
205.415856459
 30
0.0
 11
110.724023131
 21
205.915856459
 31
0.0
  0
LINE
  8
0
  6
CONTINUOUS
 62
     1
 10
111.590048535
 20
205.415856459
 30
0.0
 11
110.724023131
 21
204.915856459
 31
0.0
  0
CIRCLE
  8
0
  6
CONTINUOUS
 62
     1
 10
119.124007029
 20
203.165856459
 30
0.0
 40
1.5
  0
POINT
  8
0
  6
CONTINUOUS
 62
     1
 10
119.124007029
 20
203.165856459
 30
0.0
  0
TEXT
  8
0
  6
CONTINUOUS
 62
     1
 10
69.274006472
 20
201.185880593
 30
0.0
 40
1.399999976
  1
ＲＵＮ
 50
0.0
 41
1.0
 51
0.0
  7
KANJI3
  0
LINE
  8
0
  6
CONTINUOUS
 62
     1
 10
86.029862945
 20
203.71102282
 30
0.0
 11
85.556938777
 21
203.71102282
 31
0.0
  0
LINE
  8
0
  6
CONTINUOUS
 62
     1
 10
85.556938777
 20
203.71102282
 30
0.0
 11
85.556938777
 21
202.611463551
 31
0.0
  0
LINE
  8
0
  6
CONTINUOUS
 62
     1
 10
86.029862945
 20
203.165856459
 30
0.0
 11
85.556938777
 21
203.165856459
 31
0.0
  0
LINE
  8
0
  6
CONTINUOUS
 62
     1
 10
86.279862945
 20
203.46102282
 30
0.0
 11
86.279862945
 21
203.415856459
 31
0.0
  0
ARC
  8
0
  6
CONTINUOUS
 62
     1
 10
86.029862945
 20
202.915856459
 30
0.0
 40
0.25
 50
0.0
 51
90.0
  0
LINE
  8
0
  6
CONTINUOUS
 62
     1
 10
86.279862945
 20
202.915856459
 30
0.0
 11
86.279862945
 21
202.628683666
 31
0.0
  0
ARC
  8
0
  6
CONTINUOUS
 62
     1
 10
86.029862945
 20
203.415856459
 30
0.0
 40
0.25
 50
270.0
 51
0.0
  0
ARC
  8
0
  6
CONTINUOUS
 62
     1
 10
86.029862945
 20
203.46102282
 30
0.0
 40
0.25
 50
0.0
 51
90.0
  0
LINE
  8
0
  6
CONTINUOUS
 62
     1
 10
86.774006436
 20
203.71102282
 30
0.0
 11
86.774006436
 21
202.861463551
 31
0.0
  0
ARC
  8
0
  6
CONTINUOUS
 62
     1
 10
87.024006436
 20
202.861463551
 30
0.0
 40
0.25
 50
180.0
 51
270.0
  0
LINE
  8
0
  6
CONTINUOUS
 62
     1
 10
87.024006436
 20
202.611463551
 30
0.0
 11
87.222994586
 21
202.611463551
 31
0.0
  0
ARC
  8
0
  6
CONTINUOUS
 62
     1
 10
87.222994586
 20
202.861463551
 30
0.0
 40
0.25
 50
270.0
 51
0.0
  0
LINE
  8
0
  6
CONTINUOUS
 62
     1
 10
87.472994586
 20
203.71102282
 30
0.0
 11
87.472994586
 21
202.861463551
 31
0.0
  0
LINE
  8
0
  6
CONTINUOUS
 62
     1
 10
87.874636726
 20
203.71102282
 30
0.0
 11
87.874636726
 21
202.611463551
 31
0.0
  0
LINE
  8
0
  6
CONTINUOUS
 62
     1
 10
87.874636726
 20
203.71102282
 30
0.0
 11
88.366747389
 21
203.71102282
 31
0.0
  0
ARC
  8
0
  6
CONTINUOUS
 62
     1
 10
88.366747389
 20
203.454068781
 30
0.0
 40
0.256954039
 50
0.0
 51
90.0
  0
LINE
  8
0
  6
CONTINUOUS
 62
     1
 10
88.623701427
 20
203.454068781
 30
0.0
 11
88.623701427
 21
202.611463551
 31
0.0
  0
LINE
  8
0
  6
CONTINUOUS
 62
     1
 10
93.024055334
 20
203.715837658
 30
0.0
 11
93.024055334
 21
202.616278389
 31
0.0
  0
LINE
  8
0
  6
CONTINUOUS
 62
     1
 10
93.024055334
 20
203.715837658
 30
0.0
 11
93.616639754
 21
203.715837658
 31
0.0
  0
LINE
  8
0
  6
CONTINUOUS
 62
     1
 10
93.451125574
 20
203.715837658
 30
0.0
 11
93.451125574
 21
202.616278389
 31
0.0
  0
ARC
  8
0
  6
CONTINUOUS
 62
     1
 10
93.616639754
 20
203.458883619
 30
0.0
 40
0.256954039
 50
0.0
 51
90.0
  0
LINE
  8
0
  6
CONTINUOUS
 62
     1
 10
93.873593793
 20
203.458883619
 30
0.0
 11
93.873593793
 21
202.616278389
 31
0.0
  0
ARC
  8
0
  6
CONTINUOUS
 62
     1
 10
94.640886182
 20
203.315837658
 30
0.0
 40
0.4
 50
90.0
 51
180.0
  0
LINE
  8
0
  6
CONTINUOUS
 62
     1
 10
94.640886182
 20
203.715837658
 30
0.0
 11
94.971561338
 21
203.715837658
 31
0.0
  0
LINE
  8
0
  6
CONTINUOUS
 62
     1
 10
94.240886182
 20
203.315837658
 30
0.0
 11
94.240886182
 21
203.015856459
 31
0.0
  0
LINE
  8
0
  6
CONTINUOUS
 62
     1
 10
94.240886182
 20
203.165856459
 30
0.0
 11
94.971561338
 21
203.165856459
 31
0.0
  0
ARC
  8
0
  6
CONTINUOUS
 62
     1
 10
94.640886182
 20
203.015856459
 30
0.0
 40
0.4
 50
180.0
 51
270.0
  0
LINE
  8
0
  6
CONTINUOUS
 62
     1
 10
94.640886182
 20
202.615856459
 30
0.0
 11
94.971561338
 21
202.615856459
 31
0.0
  0
LINE
  8
0
  6
CONTINUOUS
 62
     1
 10
95.364384421
 20
203.715837658
 30
0.0
 11
95.364384421
 21
202.616278389
 31
0.0
  0
LINE
  8
0
  6
CONTINUOUS
 62
     1
 10
95.364384421
 20
203.715837658
 30
0.0
 11
95.856495083
 21
203.715837658
 31
0.0
  0
ARC
  8
0
  6
CONTINUOUS
 62
     1
 10
95.856495083
 20
203.458883619
 30
0.0
 40
0.256954039
 50
0.0
 51
90.0
  0
LINE
  8
0
  6
CONTINUOUS
 62
     1
 10
96.113449122
 20
203.458883619
 30
0.0
 11
96.113449122
 21
202.616278389
 31
0.0
  0
LINE
  8
0
  6
CONTINUOUS
 62
     1
 10
96.487217023
 20
203.715837658
 30
0.0
 11
96.487217023
 21
202.866278389
 31
0.0
  0
ARC
  8
0
  6
CONTINUOUS
 62
     1
 10
96.737217023
 20
202.866278389
 30
0.0
 40
0.25
 50
180.0
 51
270.0
  0
LINE
  8
0
  6
CONTINUOUS
 62
     1
 10
96.737217023
 20
202.616278389
 30
0.0
 11
96.936205173
 21
202.616278389
 31
0.0
  0
LINE
  8
0
  6
CONTINUOUS
 62
     1
 10
97.186205173
 20
203.715837658
 30
0.0
 11
97.186205173
 21
202.866278389
 31
0.0
  0
ARC
  8
0
  6
CONTINUOUS
 62
     1
 10
96.936205173
 20
202.866278389
 30
0.0
 40
0.25
 50
270.0
 51
0.0
  0
LINE
  8
0
  6
CONTINUOUS
 62
     1
 10
96.065661538
 20
204.975856459
 30
0.0
 11
96.330201662
 21
204.975856459
 31
0.0
  0
ARC
  8
0
  6
CONTINUOUS
 62
     1
 10
96.065661538
 20
205.295856459
 30
0.0
 40
0.32
 50
180.0
 51
270.0
  0
LINE
  8
0
  6
CONTINUOUS
 62
     1
 10
95.745661538
 20
205.535841418
 30
0.0
 11
95.745661538
 21
205.295856459
 31
0.0
  0
ARC
  8
0
  6
CONTINUOUS
 62
     1
 10
96.065661538
 20
205.535841418
 30
0.0
 40
0.32
 50
90.0
 51
180.0
  0
LINE
  8
0
  6
CONTINUOUS
 62
     1
 10
96.065661538
 20
205.855841418
 30
0.0
 11
96.330201662
 21
205.855841418
 31
0.0
  0
LINE
  8
0
  6
CONTINUOUS
 62
     1
 10
95.038555334
 20
205.855841418
 30
0.0
 11
95.423095459
 21
205.855841418
 31
0.0
  0
ARC
  8
0
  6
CONTINUOUS
 62
     1
 10
95.038555334
 20
205.655841418
 30
0.0
 40
0.2
 50
90.0
 51
180.0
  0
ARC
  8
0
  6
CONTINUOUS
 62
     1
 10
95.038555334
 20
205.615856459
 30
0.0
 40
0.2
 50
180.0
 51
270.0
  0
LINE
  8
0
  6
CONTINUOUS
 62
     1
 10
94.838555334
 20
205.655841418
 30
0.0
 11
94.838555334
 21
205.615856459
 31
0.0
  0
LINE
  8
0
  6
CONTINUOUS
 62
     1
 10
95.038555334
 20
205.415856459
 30
0.0
 11
95.21008368
 21
205.415856459
 31
0.0
  0
ARC
  8
0
  6
CONTINUOUS
 62
     1
 10
95.21008368
 20
205.215856459
 30
0.0
 40
0.2
 50
3.036363111
 51
90.0
  0
LINE
  8
0
  6
CONTINUOUS
 62
     1
 10
95.409802903
 20
205.226450405
 30
0.0
 11
95.411924671
 21
205.186450405
 31
0.0
  0
ARC
  8
0
  6
CONTINUOUS
 62
     1
 10
95.212205448
 20
205.175856459
 30
0.0
 40
0.2
 50
270.0
 51
3.036363111
  0
LINE
  8
0
  6
CONTINUOUS
 62
     1
 10
94.838555334
 20
204.975856459
 30
0.0
 11
95.212205448
 21
204.975856459
 31
0.0
  0
LINE
  8
0
  6
CONTINUOUS
 62
     1
 10
94.26902386
 20
204.975856459
 30
0.0
 11
94.533563985
 21
204.975856459
 31
0.0
  0
ARC
  8
0
  6
CONTINUOUS
 62
     1
 10
94.26902386
 20
205.295856459
 30
0.0
 40
0.32
 50
180.0
 51
270.0
  0
LINE
  8
0
  6
CONTINUOUS
 62
     1
 10
93.9506677
 20
205.415856459
 30
0.0
 11
94.510224537
 21
205.415856459
 31
0.0
  0
LINE
  8
0
  6
CONTINUOUS
 62
     1
 10
94.26902386
 20
205.855841418
 30
0.0
 11
94.533563985
 21
205.855841418
 31
0.0
  0
ARC
  8
0
  6
CONTINUOUS
 62
     1
 10
94.26902386
 20
205.535841418
 30
0.0
 40
0.32
 50
90.0
 51
180.0
  0
LINE
  8
0
  6
CONTINUOUS
 62
     1
 10
93.94902386
 20
205.535841418
 30
0.0
 11
93.94902386
 21
205.295856459
 31
0.0
  0
LINE
  8
0
  6
CONTINUOUS
 62
     1
 10
104.979248723
 20
203.71102282
 30
0.0
 11
105.777431931
 21
203.71102282
 31
0.0
  0
LINE
  8
0
  6
CONTINUOUS
 62
     1
 10
105.378340327
 20
203.71102282
 30
0.0
 11
105.378340327
 21
202.611463551
 31
0.0
  0
ARC
  8
0
  6
CONTINUOUS
 62
     1
 10
104.382623048
 20
203.454068781
 30
0.0
 40
0.256954039
 50
0.0
 51
90.0
  0
LINE
  8
0
  6
CONTINUOUS
 62
     1
 10
104.639577087
 20
203.454068781
 30
0.0
 11
104.639577087
 21
202.611463551
 31
0.0
  0
LINE
  8
0
  6
CONTINUOUS
 62
     1
 10
103.890512386
 20
203.71102282
 30
0.0
 11
104.382623048
 21
203.71102282
 31
0.0
  0
LINE
  8
0
  6
CONTINUOUS
 62
     1
 10
103.890512386
 20
203.71102282
 30
0.0
 11
103.890512386
 21
202.611463551
 31
0.0
  0
LINE
  8
0
  6
CONTINUOUS
 62
     1
 10
103.124039232
 20
203.71102282
 30
0.0
 11
103.124039232
 21
202.611463551
 31
0.0
  0
LINE
  8
0
  6
CONTINUOUS
 62
     1
 10
102.394716303
 20
203.46102282
 30
0.0
 11
102.394716303
 21
203.415856459
 31
0.0
  0
ARC
  8
0
  6
CONTINUOUS
 62
     1
 10
102.144716303
 20
203.46102282
 30
0.0
 40
0.25
 50
0.0
 51
90.0
  0
ARC
  8
0
  6
CONTINUOUS
 62
     1
 10
102.144716303
 20
203.415856459
 30
0.0
 40
0.25
 50
270.0
 51
0.0
  0
ARC
  8
0
  6
CONTINUOUS
 62
     1
 10
102.144716303
 20
202.915856459
 30
0.0
 40
0.25
 50
0.0
 51
90.0
  0
LINE
  8
0
  6
CONTINUOUS
 62
     1
 10
102.394716303
 20
202.915856459
 30
0.0
 11
102.394716303
 21
202.628683666
 31
0.0
  0
LINE
  8
0
  6
CONTINUOUS
 62
     1
 10
102.144716303
 20
203.165856459
 30
0.0
 11
101.671792135
 21
203.165856459
 31
0.0
  0
LINE
  8
0
  6
CONTINUOUS
 62
     1
 10
102.144716303
 20
203.71102282
 30
0.0
 11
101.671792135
 21
203.71102282
 31
0.0
  0
LINE
  8
0
  6
CONTINUOUS
 62
     1
 10
101.671792135
 20
203.71102282
 30
0.0
 11
101.671792135
 21
202.611463551
 31
0.0
  0
ARC
  8
0
  6
CONTINUOUS
 62
     1
 10
101.015147433
 20
203.415856459
 30
0.0
 40
0.25
 50
270.0
 51
0.0
  0
ARC
  8
0
  6
CONTINUOUS
 62
     1
 10
101.015147433
 20
203.46102282
 30
0.0
 40
0.25
 50
0.0
 51
90.0
  0
LINE
  8
0
  6
CONTINUOUS
 62
     1
 10
101.015147433
 20
203.71102282
 30
0.0
 11
100.542223265
 21
203.71102282
 31
0.0
  0
LINE
  8
0
  6
CONTINUOUS
 62
     1
 10
101.015147433
 20
203.165856459
 30
0.0
 11
100.542223265
 21
203.165856459
 31
0.0
  0
LINE
  8
0
  6
CONTINUOUS
 62
     1
 10
100.542223265
 20
203.71102282
 30
0.0
 11
100.542223265
 21
202.611463551
 31
0.0
  0
LINE
  8
0
  6
CONTINUOUS
 62
     1
 10
109.424023131
 20
203.716259588
 30
0.0
 11
109.754698286
 21
203.716259588
 31
0.0
  0
ARC
  8
0
  6
CONTINUOUS
 62
     1
 10
109.424023131
 20
203.316259588
 30
0.0
 40
0.4
 50
90.0
 51
180.0
  0
LINE
  8
0
  6
CONTINUOUS
 62
     1
 10
109.024023131
 20
203.316259588
 30
0.0
 11
109.024023131
 21
202.616278389
 31
0.0
  0
LINE
  8
0
  6
CONTINUOUS
 62
     1
 10
109.024023131
 20
203.166278389
 30
0.0
 11
109.754698286
 21
203.166278389
 31
0.0
  0
ARC
  8
0
  6
CONTINUOUS
 62
     1
 10
110.670028289
 20
203.316259588
 30
0.0
 40
0.4
 50
90.0
 51
180.0
  0
LINE
  8
0
  6
CONTINUOUS
 62
     1
 10
110.670028289
 20
203.716259588
 30
0.0
 11
111.000703444
 21
203.716259588
 31
0.0
  0
LINE
  8
0
  6
CONTINUOUS
 62
     1
 10
110.270028289
 20
203.316259588
 30
0.0
 11
110.270028289
 21
203.016278389
 31
0.0
  0
ARC
  8
0
  6
CONTINUOUS
 62
     1
 10
110.670028289
 20
203.016278389
 30
0.0
 40
0.4
 50
180.0
 51
270.0
  0
LINE
  8
0
  6
CONTINUOUS
 62
     1
 10
110.670028289
 20
202.616278389
 30
0.0
 11
111.000703444
 21
202.616278389
 31
0.0
  0
LINE
  8
0
  6
CONTINUOUS
 62
     1
 10
110.272083088
 20
203.166278389
 30
0.0
 11
110.971529135
 21
203.166278389
 31
0.0
  0
ARC
  8
0
  6
CONTINUOUS
 62
     1
 10
111.755714287
 20
203.316259588
 30
0.0
 40
0.4
 50
90.0
 51
180.0
  0
LINE
  8
0
  6
CONTINUOUS
 62
     1
 10
111.755714287
 20
203.716259588
 30
0.0
 11
112.086389443
 21
203.716259588
 31
0.0
  0
LINE
  8
0
  6
CONTINUOUS
 62
     1
 10
111.364352217
 20
203.166278389
 30
0.0
 11
112.086389443
 21
203.166278389
 31
0.0
  0
LINE
  8
0
  6
CONTINUOUS
 62
     1
 10
111.355714287
 20
203.316259588
 30
0.0
 11
111.355714287
 21
203.016278389
 31
0.0
  0
ARC
  8
0
  6
CONTINUOUS
 62
     1
 10
111.755714287
 20
203.016278389
 30
0.0
 40
0.4
 50
180.0
 51
270.0
  0
LINE
  8
0
  6
CONTINUOUS
 62
     1
 10
111.755714287
 20
202.616278389
 30
0.0
 11
112.086389443
 21
202.616278389
 31
0.0
  0
LINE
  8
0
  6
CONTINUOUS
 62
     1
 10
112.487184819
 20
203.716259588
 30
0.0
 11
112.487184819
 21
202.616278389
 31
0.0
  0
LINE
  8
0
  6
CONTINUOUS
 62
     1
 10
112.768190407
 20
203.716259588
 30
0.0
 11
112.487184819
 21
203.716259588
 31
0.0
  0
ARC
  8
0
  6
CONTINUOUS
 62
     1
 10
112.768190407
 20
203.26659002
 30
0.0
 40
0.449669568
 50
0.0
 51
90.0
  0
LINE
  8
0
  6
CONTINUOUS
 62
     1
 10
113.217859975
 20
203.26659002
 30
0.0
 11
113.217859975
 21
203.065947957
 31
0.0
  0
ARC
  8
0
  6
CONTINUOUS
 62
     1
 10
112.768190407
 20
203.065947957
 30
0.0
 40
0.449669568
 50
270.0
 51
0.0
  0
LINE
  8
0
  6
CONTINUOUS
 62
     1
 10
112.768190407
 20
202.616278389
 30
0.0
 11
112.487184819
 21
202.616278389
 31
0.0
  0
LINE
  8
0
  6
CONTINUOUS
 62
     1
 10
117.954884571
 20
203.715837658
 30
0.0
 11
118.285559726
 21
203.715837658
 31
0.0
  0
LINE
  8
0
  6
CONTINUOUS
 62
     1
 10
117.55693937
 20
203.165856459
 30
0.0
 11
118.256385417
 21
203.165856459
 31
0.0
  0
LINE
  8
0
  6
CONTINUOUS
 62
     1
 10
117.954884571
 20
202.615856459
 30
0.0
 11
118.285559726
 21
202.615856459
 31
0.0
  0
LINE
  8
0
  6
CONTINUOUS
 62
     1
 10
118.774007029
 20
203.715415728
 30
0.0
 11
118.774007029
 21
202.615856459
 31
0.0
  0
LINE
  8
0
  6
CONTINUOUS
 62
     1
 10
118.774007029
 20
203.715415728
 30
0.0
 11
119.266117691
 21
203.715415728
 31
0.0
  0
ARC
  8
0
  6
CONTINUOUS
 62
     1
 10
119.266117691
 20
203.458461689
 30
0.0
 40
0.256954039
 50
0.0
 51
90.0
  0
LINE
  8
0
  6
CONTINUOUS
 62
     1
 10
119.52307173
 20
203.458461689
 30
0.0
 11
119.52307173
 21
202.615856459
 31
0.0
  0
LINE
  8
0
  6
CONTINUOUS
 62
     1
 10
119.874637319
 20
203.715415728
 30
0.0
 11
120.672820528
 21
203.715415728
 31
0.0
  0
LINE
  8
0
  6
CONTINUOUS
 62
     1
 10
120.273728924
 20
203.715415728
 30
0.0
 11
120.273728924
 21
202.615856459
 31
0.0
  0
ARC
  8
0
  6
CONTINUOUS
 62
     1
 10
117.954884571
 20
203.315837658
 30
0.0
 40
0.4
 50
90.0
 51
180.0
  0
LINE
  8
0
  6
CONTINUOUS
 62
     1
 10
117.554884571
 20
203.315837658
 30
0.0
 11
117.554884571
 21
203.015856459
 31
0.0
  0
ARC
  8
0
  6
CONTINUOUS
 62
     1
 10
117.954884571
 20
203.015856459
 30
0.0
 40
0.4
 50
180.0
 51
270.0
  0
POLYLINE
  8
0
  6
CONTINUOUS
 62
     1
 66
     1
 70
     1
  0
VERTEX
  8
0
  6
CONTINUOUS
 62
     1
 10
111.590048535
 20
205.415856459
 30
0.0
  0
VERTEX
  8
0
  6
CONTINUOUS
 62
     1
 10
110.724023131
 20
204.915856459
 30
0.0
  0
VERTEX
  8
0
  6
CONTINUOUS
 62
     1
 10
110.724023131
 20
205.915856459
 30
0.0
  0
SEQEND
  0
POLYLINE
  8
0
  6
CONTINUOUS
 62
     1
 66
     1
 70
     1
  0
VERTEX
  8
0
  6
CONTINUOUS
 62
     1
 10
103.124039233
 20
205.881881863
 30
0.0
  0
VERTEX
  8
0
  6
CONTINUOUS
 62
     1
 10
103.624039233
 20
205.015856459
 30
0.0
  0
VERTEX
  8
0
  6
CONTINUOUS
 62
     1
 10
102.624039233
 20
205.015856459
 30
0.0
  0
SEQEND
  0
ARC
  8
0
  6
CONTINUOUS
 62
     1
 10
60.623995585
 20
156.615854401
 30
0.0
 40
0.5
 50
180.0
 51
270.0
  0
LINE
  8
0
  6
CONTINUOUS
 62
     1
 10
60.623995585
 20
156.115854401
 30
0.0
 11
128.623995585
 21
156.115854401
 31
0.0
  0
ARC
  8
0
  6
CONTINUOUS
 62
     1
 10
128.623995585
 20
156.615854401
 30
0.0
 40
0.5
 50
270.0
 51
0.0
  0
TEXT
  8
0
  6
CONTINUOUS
 62
     1
 10
62.2
 20
157.3
 30
-0.2
 40
1.7
  1
ＴＲＭ－１０Ｃ
 50
0.0
 41
0.941176471
 51
0.0
  7
KANJI4
  0
LINE
  8
0
  6
CONTINUOUS
 62
     1
 10
60.123995585
 20
160.115854401
 30
0.0
 11
60.123995585
 21
156.615854401
 31
0.0
  0
LINE
  8
0
  6
CONTINUOUS
 62
     1
 10
62.373988236
 20
224.615854401
 30
0.0
 11
130.623995585
 21
224.615854401
 31
0.0
  0
LINE
  8
0
  6
CONTINUOUS
 62
     1
 10
58.623992331
 20
224.865854401
 30
0.0
 11
62.373988236
 21
224.865854401
 31
0.0
  0
LINE
  8
0
  6
CONTINUOUS
 62
     1
 10
62.373988236
 20
224.865854401
 30
0.0
 11
62.373988236
 21
224.615854401
 31
0.0
  0
LINE
  8
0
  6
CONTINUOUS
 62
     1
 10
58.623992331
 20
153.865854401
 30
0.0
 11
58.623992331
 21
225.865854401
 31
0.0
  0
LINE
  8
0
  6
CONTINUOUS
 62
     1
 10
58.623992331
 20
224.265854401
 30
0.0
 11
58.623992331
 21
155.465854401
 31
0.0
  0
LINE
  8
0
  6
CONTINUOUS
 62
     1
 10
60.174007029
 20
199.965856459
 30
0.0
 11
60.174007029
 21
221.865854401
 31
0.0
  0
ARC
  8
0
  6
CONTINUOUS
 62
     1
 10
60.674007029
 20
221.865854401
 30
0.0
 40
0.5
 50
90.0
 51
180.0
  0
LINE
  8
0
  6
CONTINUOUS
 62
     1
 10
60.674007029
 20
222.365854401
 30
0.0
 11
128.574007029
 21
222.365854401
 31
0.0
  0
LINE
  8
0
  6
CONTINUOUS
 62
     1
 10
62.373988236
 20
155.115854401
 30
0.0
 11
130.623995585
 21
155.115854401
 31
0.0
  0
LINE
  8
0
  6
CONTINUOUS
 62
     1
 10
58.623992331
 20
154.865854401
 30
0.0
 11
62.373988236
 21
154.865854401
 31
0.0
  0
LINE
  8
0
  6
CONTINUOUS
 62
     1
 10
62.373988236
 20
155.115854401
 30
0.0
 11
62.373988236
 21
154.865854401
 31
0.0
  0
LINE
  8
0
  6
CONTINUOUS
 62
     1
 10
129.123995585
 20
160.115854401
 30
0.0
 11
129.123995585
 21
156.615854401
 31
0.0
  0
ARC
  8
0
  6
CONTINUOUS
 62
     1
 10
128.623995585
 20
160.115854401
 30
0.0
 40
0.5
 50
0.0
 51
90.0
  0
LINE
  8
0
  6
CONTINUOUS
 62
     1
 10
132.024007029
 20
186.365854401
 30
0.0
 11
129.524007029
 21
186.365854401
 31
0.0
  0
LINE
  8
0
  6
CONTINUOUS
 62
     1
 10
129.274010284
 20
193.865854401
 30
0.0
 11
129.274010284
 21
185.865854401
 31
0.0
  0
LINE
  8
0
  6
CONTINUOUS
 62
     1
 10
129.274010284
 20
185.865854401
 30
0.0
 11
130.623995585
 21
185.865854401
 31
0.0
  0
LINE
  8
0
  6
CONTINUOUS
 62
     1
 10
129.274010284
 20
193.865854401
 30
0.0
 11
130.623995585
 21
193.865854401
 31
0.0
  0
LINE
  8
0
  6
CONTINUOUS
 62
     1
 10
129.524007029
 20
193.365854401
 30
0.0
 11
129.524007029
 21
186.365854401
 31
0.0
  0
LINE
  8
0
  6
CONTINUOUS
 62
     1
 10
127.623995585
 20
198.015854401
 30
0.0
 11
127.623995585
 21
161.615854401
 31
0.0
  0
LINE
  8
0
  6
CONTINUOUS
 62
     1
 10
131.774007029
 20
195.415854401
 30
0.0
 11
130.624007029
 21
195.415854401
 31
0.0
  0
LINE
  8
0
  6
CONTINUOUS
 62
     1
 10
131.774007029
 20
194.415854401
 30
0.0
 11
130.624007029
 21
194.415854401
 31
0.0
  0
LINE
  8
0
  6
CONTINUOUS
 62
     1
 10
131.774007029
 20
195.415854401
 30
0.0
 11
131.774007029
 21
194.415854401
 31
0.0
  0
LINE
  8
0
  6
CONTINUOUS
 62
     1
 10
130.524007029
 20
193.365854401
 30
0.0
 11
130.524007029
 21
186.365854401
 31
0.0
  0
LINE
  8
0
  6
CONTINUOUS
 62
     1
 10
130.749007029
 20
193.915854401
 30
0.0
 11
130.749007029
 21
193.365854401
 31
0.0
  0
LINE
  8
0
  6
CONTINUOUS
 62
     1
 10
129.524007029
 20
193.365854401
 30
0.0
 11
132.024007029
 21
193.365854401
 31
0.0
  0
LINE
  8
0
  6
CONTINUOUS
 62
     1
 10
131.774007029
 20
185.315854401
 30
0.0
 11
131.774007029
 21
184.565854401
 31
0.0
  0
LINE
  8
0
  6
CONTINUOUS
 62
     1
 10
131.774007029
 20
185.315854401
 30
0.0
 11
130.624007029
 21
185.315854401
 31
0.0
  0
LINE
  8
0
  6
CONTINUOUS
 62
     1
 10
131.774007029
 20
184.565854401
 30
0.0
 11
130.624007029
 21
184.565854401
 31
0.0
  0
LINE
  8
0
  6
CONTINUOUS
 62
     1
 10
130.749007029
 20
186.365854401
 30
0.0
 11
130.749007029
 21
185.815854401
 31
0.0
  0
TEXT
  8
020
  6
CONTINUOUS
 62
     1
 10
60.846844046
 20
112.189656009
 30
0.0
 40
5.0
  1
〈パネルカット〉
 50
0.0
 41
1.0
 51
0.0
  7
KANJI5
  0
POLYLINE
  8
0
  6
CONTINUOUS
 62
     1
 66
     1
  0
VERTEX
  8
0
  6
CONTINUOUS
 62
     1
 10
198.851792081
 20
206.082926447
 30
0.0
  0
VERTEX
  8
0
  6
CONTINUOUS
 62
     1
 10
196.851792081
 20
205.482926423
 30
0.0
  0
VERTEX
  8
0
  6
CONTINUOUS
 62
     1
 10
198.851792081
 20
204.882926399
 30
0.0
  0
SEQEND
  0
LINE
  8
0
  6
CONTINUOUS
 62
     1
 10
196.851792081
 20
225.515857041
 30
0.0
 11
196.851792081
 21
203.482926423
 31
0.0
  0
POLYLINE
  8
0
  6
CONTINUOUS
 62
     1
 66
     1
  0
VERTEX
  8
0
  6
CONTINUOUS
 62
     1
 10
189.851792081
 20
206.082926447
 30
0.0
  0
VERTEX
  8
0
  6
CONTINUOUS
 62
     1
 10
191.851792081
 20
205.482926423
 30
0.0
  0
VERTEX
  8
0
  6
CONTINUOUS
 62
     1
 10
189.851792081
 20
204.882926399
 30
0.0
  0
SEQEND
  0
LINE
  8
0
  6
CONTINUOUS
 62
     1
 10
188.851792081
 20
205.482926423
 30
0.0
 11
219.553808912
 21
205.482926423
 31
0.0
  0
LINE
  8
0
  6
CONTINUOUS
 62
     1
 10
179.351792081
 20
224.615857655
 30
0.0
 11
186.351792081
 21
224.615857655
 31
0.0
  0
LINE
  8
0
  6
CONTINUOUS
 62
     1
 10
186.351792081
 20
223.065857053
 30
0.0
 11
186.351792081
 21
223.715857655
 31
0.0
  0
LINE
  8
0
  6
CONTINUOUS
 62
     1
 10
187.951792081
 20
185.315855003
 30
0.0
 11
187.951792081
 21
184.065855003
 31
0.0
  0
LINE
  8
0
  6
CONTINUOUS
 62
     1
 10
184.101792081
 20
195.915855003
 30
0.0
 11
188.451792081
 21
195.915855003
 31
0.0
  0
LINE
  8
0
  6
CONTINUOUS
 62
     1
 10
187.951792081
 20
195.915855003
 30
0.0
 11
187.951792081
 21
194.415855003
 31
0.0
  0
LINE
  8
0
  6
CONTINUOUS
 62
     1
 10
182.851792081
 20
193.915855003
 30
0.0
 11
184.201792081
 21
193.915855003
 31
0.0
  0
LINE
  8
0
  6
CONTINUOUS
 62
     1
 10
182.851792081
 20
185.815855003
 30
0.0
 11
184.201792081
 21
185.815855003
 31
0.0
  0
LINE
  8
0
  6
CONTINUOUS
 62
     1
 10
184.201792081
 20
193.915855003
 30
0.0
 11
186.051792081
 21
193.915855003
 31
0.0
  0
LINE
  8
0
  6
CONTINUOUS
 62
     1
 10
184.201792081
 20
185.815855003
 30
0.0
 11
186.051792081
 21
185.815855003
 31
0.0
  0
LINE
  8
0
  6
CONTINUOUS
 62
     1
 10
184.101792081
 20
194.415855003
 30
0.0
 11
185.036407466
 21
194.415855003
 31
0.0
  0
LINE
  8
0
  6
CONTINUOUS
 62
     1
 10
186.051792081
 20
194.415855003
 30
0.0
 11
191.851792081
 21
194.415855003
 31
0.0
  0
LINE
  8
0
  6
CONTINUOUS
 62
     1
 10
184.101792081
 20
185.315855003
 30
0.0
 11
185.036407466
 21
185.315855003
 31
0.0
  0
LINE
  8
0
  6
CONTINUOUS
 62
     1
 10
186.051792081
 20
185.315855003
 30
0.0
 11
191.851792081
 21
185.315855003
 31
0.0
  0
LINE
  8
0
  6
CONTINUOUS
 62
     1
 10
186.051792081
 20
185.315855003
 30
0.0
 11
186.051792081
 21
185.815855003
 31
0.0
  0
LINE
  8
0
  6
CONTINUOUS
 62
     1
 10
186.051792081
 20
193.915855003
 30
0.0
 11
186.051792081
 21
194.415855003
 31
0.0
  0
LINE
  8
0
  6
CONTINUOUS
 62
     1
 10
185.451792081
 20
193.915855003
 30
0.0
 11
186.051792081
 21
193.915855003
 31
0.0
  0
LINE
  8
0
  6
CONTINUOUS
 62
     1
 10
185.451792081
 20
185.815855003
 30
0.0
 11
186.051792081
 21
185.815855003
 31
0.0
  0
LINE
  8
0
  6
CONTINUOUS
 62
     1
 10
185.036407466
 20
195.415855003
 30
0.0
 11
184.101792081
 21
195.415855003
 31
0.0
  0
LINE
  8
0
  6
CONTINUOUS
 62
     1
 10
185.036407466
 20
184.565855003
 30
0.0
 11
184.101792081
 21
184.565855003
 31
0.0
  0
LINE
  8
0
  6
CONTINUOUS
 62
     1
 10
186.051792081
 20
185.315855003
 30
0.0
 11
186.051792081
 21
185.815855003
 31
0.0
  0
LINE
  8
0
  6
CONTINUOUS
 62
     1
 10
186.051792081
 20
193.915855003
 30
0.0
 11
186.051792081
 21
194.415855003
 31
0.0
  0
LINE
  8
0
  6
CONTINUOUS
 62
     1
 10
184.101792081
 20
195.415855003
 30
0.0
 11
184.101792081
 21
195.915855003
 31
0.0
  0
LINE
  8
0
  6
CONTINUOUS
 62
     1
 10
184.101792081
 20
184.565855003
 30
0.0
 11
184.101792081
 21
184.065855003
 31
0.0
  0
LINE
  8
0
  6
CONTINUOUS
 62
     1
 10
185.036407466
 20
184.565855003
 30
0.0
 11
185.036407466
 21
185.315855003
 31
0.0
  0
LINE
  8
0
  6
CONTINUOUS
 62
     1
 10
185.036407466
 20
195.415855003
 30
0.0
 11
185.036407466
 21
194.415855003
 31
0.0
  0
LINE
  8
0
  6
CONTINUOUS
 62
     1
 10
185.036407466
 20
195.915855003
 30
0.0
 11
184.101792081
 21
195.915855003
 31
0.0
  0
LINE
  8
0
  6
CONTINUOUS
 62
     1
 10
184.101792081
 20
184.065855003
 30
0.0
 11
188.451792081
 21
184.065855003
 31
0.0
  0
LINE
  8
0
  6
CONTINUOUS
 62
     1
 10
186.051792081
 20
185.315855003
 30
0.0
 11
186.051792081
 21
186.365855003
 31
0.0
  0
LINE
  8
0
  6
CONTINUOUS
 62
     1
 10
186.051792081
 20
193.365855003
 30
0.0
 11
186.051792081
 21
194.415855003
 31
0.0
  0
LINE
  8
0
  6
CONTINUOUS
 62
     1
 10
191.451792082
 20
192.865855003
 30
0.0
 11
191.451792082
 21
186.865855003
 31
0.0
  0
LINE
  8
0
  6
CONTINUOUS
 62
     1
 10
187.326792082
 20
186.365855003
 30
0.0
 11
187.326792082
 21
185.315855003
 31
0.0
  0
LINE
  8
0
  6
CONTINUOUS
 62
     1
 10
187.326792082
 20
194.415855003
 30
0.0
 11
187.326792082
 21
193.365855003
 31
0.0
  0
LINE
  8
0
  6
CONTINUOUS
 62
     1
 10
180.451792082
 20
193.365855003
 30
0.0
 11
190.951792082
 21
193.365855003
 31
0.0
  0
LINE
  8
0
  6
CONTINUOUS
 62
     1
 10
183.201792082
 20
191.490855003
 30
0.0
 11
183.201792082
 21
188.240855003
 31
0.0
  0
LINE
  8
0
  6
CONTINUOUS
 62
     1
 10
188.951792082
 20
191.365855003
 30
0.0
 11
188.951792082
 21
188.365855003
 31
0.0
  0
LINE
  8
0
  6
CONTINUOUS
 62
     1
 10
183.326792082
 20
188.365855003
 30
0.0
 11
188.451792082
 21
188.365855003
 31
0.0
  0
LINE
  8
0
  6
CONTINUOUS
 62
     1
 10
183.326792082
 20
191.365855003
 30
0.0
 11
188.451792082
 21
191.365855003
 31
0.0
  0
LINE
  8
0
  6
CONTINUOUS
 62
     1
 10
183.326792082
 20
191.615855003
 30
0.0
 11
188.701792082
 21
191.615855003
 31
0.0
  0
LINE
  8
0
  6
CONTINUOUS
 62
     1
 10
183.326792082
 20
188.115855003
 30
0.0
 11
188.701792082
 21
188.115855003
 31
0.0
  0
LINE
  8
0
  6
CONTINUOUS
 62
     1
 10
188.701792082
 20
191.115855003
 30
0.0
 11
188.701792082
 21
188.615855003
 31
0.0
  0
ARC
  8
0
  6
CONTINUOUS
 62
     1
 10
183.326792082
 20
191.490855003
 30
0.0
 40
0.125
 50
90.0
 51
270.0
  0
ARC
  8
0
  6
CONTINUOUS
 62
     1
 10
183.326792082
 20
188.240855003
 30
0.0
 40
0.125
 50
90.0
 51
270.0
  0
ARC
  8
0
  6
CONTINUOUS
 62
     1
 10
188.451792082
 20
191.115855003
 30
0.0
 40
0.25
 50
0.0
 51
90.0
  0
ARC
  8
0
  6
CONTINUOUS
 62
     1
 10
188.451792082
 20
188.615855003
 30
0.0
 40
0.25
 50
270.0
 51
0.0
  0
ARC
  8
0
  6
CONTINUOUS
 62
     1
 10
188.701792082
 20
188.365855003
 30
0.0
 40
0.25
 50
270.0
 51
0.0
  0
ARC
  8
0
  6
CONTINUOUS
 62
     1
 10
188.701792082
 20
191.365855003
 30
0.0
 40
0.25
 50
0.0
 51
90.0
  0
ARC
  8
0
  6
CONTINUOUS
 62
     1
 10
190.951792082
 20
186.865855003
 30
0.0
 40
0.5
 50
270.0
 51
0.0
  0
ARC
  8
0
  6
CONTINUOUS
 62
     1
 10
190.951792082
 20
192.865855003
 30
0.0
 40
0.5
 50
0.0
 51
90.0
  0
LINE
  8
0
  6
CONTINUOUS
 62
     1
 10
180.451792082
 20
186.365855003
 30
0.0
 11
190.951792082
 21
186.365855003
 31
0.0
  0
LINE
  8
0
  6
CONTINUOUS
 62
     1
 10
184.101792081
 20
185.315855003
 30
0.0
 11
184.101792081
 21
186.365855003
 31
0.0
  0
LINE
  8
0
  6
CONTINUOUS
 62
     1
 10
184.101792081
 20
193.365855003
 30
0.0
 11
184.101792081
 21
194.415855003
 31
0.0
  0
LINE
  8
0
  6
CONTINUOUS
 62
     1
 10
185.451792081
 20
185.671337711
 30
0.0
 11
185.451792081
 21
184.203796007
 31
0.0
  0
LINE
  8
0
  6
CONTINUOUS
 62
     1
 10
185.451792081
 20
195.711126634
 30
0.0
 11
185.451792081
 21
194.094442931
 31
0.0
  0
LINE
  8
0
  6
CONTINUOUS
 62
     1
 10
182.701792081
 20
185.365855003
 30
0.0
 11
182.701792081
 21
155.215855003
 31
0.0
  0
LINE
  8
0
  6
CONTINUOUS
 62
     1
 10
179.351792081
 20
193.865855003
 30
0.0
 11
182.201792081
 21
193.865855003
 31
0.0
  0
LINE
  8
0
  6
CONTINUOUS
 62
     1
 10
179.351792081
 20
185.865855003
 30
0.0
 11
182.201792081
 21
185.865855003
 31
0.0
  0
ARC
  8
0
  6
CONTINUOUS
 62
     1
 10
182.201792081
 20
194.365855003
 30
0.0
 40
0.5
 50
270.0
 51
0.0
  0
ARC
  8
0
  6
CONTINUOUS
 62
     1
 10
182.201792081
 20
185.365855003
 30
0.0
 40
0.5
 50
0.0
 51
90.0
  0
LINE
  8
0
  6
CONTINUOUS
 62
     1
 10
182.101792081
 20
186.365855003
 30
0.0
 11
182.101792081
 21
185.865855003
 31
0.0
  0
LINE
  8
0
  6
CONTINUOUS
 62
     1
 10
182.101792081
 20
193.865855003
 30
0.0
 11
182.101792081
 21
193.365855003
 31
0.0
  0
LINE
  8
0
  6
CONTINUOUS
 62
     1
 10
180.451792082
 20
193.365855003
 30
0.0
 11
180.451792082
 21
186.365855003
 31
0.0
  0
LINE
  8
0
  6
CONTINUOUS
 62
     1
 10
186.351792081
 20
195.915855003
 30
0.0
 11
186.351792081
 21
224.615857655
 31
0.0
  0
LINE
  8
0
  6
CONTINUOUS
 62
     1
 10
182.701792081
 20
224.515855003
 30
0.0
 11
182.701792081
 21
194.365855003
 31
0.0
  0
LINE
  8
0
  6
CONTINUOUS
 62
     1
 10
179.351792081
 20
155.115854401
 30
0.0
 11
186.351792081
 21
155.115854401
 31
0.0
  0
LINE
  8
0
  6
CONTINUOUS
 62
     1
 10
186.351792081
 20
155.115854401
 30
0.0
 11
186.351792081
 21
184.065855003
 31
0.0
  0
LINE
  8
0
  6
CONTINUOUS
 62
     1
 10
204.101792081
 20
225.065857053
 30
0.0
 11
204.101792081
 21
224.065857053
 31
0.0
  0
LINE
  8
0
  6
CONTINUOUS
 62
     1
 10
205.101792081
 20
224.065857053
 30
0.0
 11
205.101792081
 21
225.065857053
 31
0.0
  0
LINE
  8
0
  6
CONTINUOUS
 62
     1
 10
232.601792081
 20
225.065857053
 30
0.0
 11
232.601792081
 21
224.065857053
 31
0.0
  0
LINE
  8
0
  6
CONTINUOUS
 62
     1
 10
233.101792081
 20
225.065857053
 30
0.0
 11
233.101792081
 21
229.065857053
 31
0.0
  0
LINE
  8
0
  6
CONTINUOUS
 62
     1
 10
255.101792081
 20
208.615855003
 30
0.0
 11
256.351792081
 21
208.615855003
 31
0.0
  0
LINE
  8
0
  6
CONTINUOUS
 62
     1
 10
255.101792081
 20
206.115855003
 30
0.0
 11
256.351792081
 21
206.115855003
 31
0.0
  0
LINE
  8
0
  6
CONTINUOUS
 62
     1
 10
256.351792081
 20
206.115855003
 30
0.0
 11
256.351792081
 21
208.615855003
 31
0.0
  0
LINE
  8
0
  6
CONTINUOUS
 62
     1
 10
255.101792081
 20
208.615855003
 30
0.0
 11
255.101792081
 21
206.115855003
 31
0.0
  0
LINE
  8
0
  6
CONTINUOUS
 62
     1
 10
243.851792081
 20
199.865855003
 30
0.0
 11
252.851792081
 21
199.865855003
 31
0.0
  0
LINE
  8
0
  6
CONTINUOUS
 62
     1
 10
243.851792081
 20
198.865855003
 30
0.0
 11
252.851792081
 21
198.865855003
 31
0.0
  0
ARC
  8
0
  6
CONTINUOUS
 62
     1
 10
243.851792081
 20
199.365855003
 30
0.0
 40
0.5
 50
90.0
 51
270.0
  0
ARC
  8
0
  6
CONTINUOUS
 62
     1
 10
252.851792081
 20
199.365855003
 30
0.0
 40
0.5
 50
270.0
 51
90.0
  0
LINE
  8
0
  6
CONTINUOUS
 62
     1
 10
243.851792081
 20
201.865855003
 30
0.0
 11
252.851792081
 21
201.865855003
 31
0.0
  0
LINE
  8
0
  6
CONTINUOUS
 62
     1
 10
243.851792081
 20
200.865855003
 30
0.0
 11
252.851792081
 21
200.865855003
 31
0.0
  0
ARC
  8
0
  6
CONTINUOUS
 62
     1
 10
243.851792081
 20
201.365855003
 30
0.0
 40
0.5
 50
90.0
 51
270.0
  0
ARC
  8
0
  6
CONTINUOUS
 62
     1
 10
252.851792081
 20
201.365855003
 30
0.0
 40
0.5
 50
270.0
 51
90.0
  0
LINE
  8
0
  6
CONTINUOUS
 62
     1
 10
243.851792081
 20
203.865855003
 30
0.0
 11
252.851792081
 21
203.865855003
 31
0.0
  0
LINE
  8
0
  6
CONTINUOUS
 62
     1
 10
243.851792081
 20
202.865855003
 30
0.0
 11
252.851792081
 21
202.865855003
 31
0.0
  0
ARC
  8
0
  6
CONTINUOUS
 62
     1
 10
243.851792081
 20
203.365855003
 30
0.0
 40
0.5
 50
90.0
 51
270.0
  0
ARC
  8
0
  6
CONTINUOUS
 62
     1
 10
252.851792081
 20
203.365855003
 30
0.0
 40
0.5
 50
270.0
 51
90.0
  0
LINE
  8
0
  6
CONTINUOUS
 62
     1
 10
243.851792081
 20
205.865855003
 30
0.0
 11
252.851792081
 21
205.865855003
 31
0.0
  0
LINE
  8
0
  6
CONTINUOUS
 62
     1
 10
243.851792081
 20
204.865855003
 30
0.0
 11
252.851792081
 21
204.865855003
 31
0.0
  0
ARC
  8
0
  6
CONTINUOUS
 62
     1
 10
243.851792081
 20
205.365855003
 30
0.0
 40
0.5
 50
90.0
 51
270.0
  0
ARC
  8
0
  6
CONTINUOUS
 62
     1
 10
252.851792081
 20
205.365855003
 30
0.0
 40
0.5
 50
270.0
 51
90.0
  0
LINE
  8
0
  6
CONTINUOUS
 62
     1
 10
243.851792081
 20
207.865855003
 30
0.0
 11
252.851792081
 21
207.865855003
 31
0.0
  0
LINE
  8
0
  6
CONTINUOUS
 62
     1
 10
243.851792081
 20
206.865855003
 30
0.0
 11
252.851792081
 21
206.865855003
 31
0.0
  0
ARC
  8
0
  6
CONTINUOUS
 62
     1
 10
243.851792081
 20
207.365855003
 30
0.0
 40
0.5
 50
90.0
 51
270.0
  0
ARC
  8
0
  6
CONTINUOUS
 62
     1
 10
252.851792081
 20
207.365855003
 30
0.0
 40
0.5
 50
270.0
 51
90.0
  0
LINE
  8
0
  6
CONTINUOUS
 62
     1
 10
243.851792081
 20
209.865855003
 30
0.0
 11
252.851792081
 21
209.865855003
 31
0.0
  0
LINE
  8
0
  6
CONTINUOUS
 62
     1
 10
243.851792081
 20
208.865855003
 30
0.0
 11
252.851792081
 21
208.865855003
 31
0.0
  0
ARC
  8
0
  6
CONTINUOUS
 62
     1
 10
243.851792081
 20
209.365855003
 30
0.0
 40
0.5
 50
90.0
 51
270.0
  0
ARC
  8
0
  6
CONTINUOUS
 62
     1
 10
252.851792081
 20
209.365855003
 30
0.0
 40
0.5
 50
270.0
 51
90.0
  0
LINE
  8
0
  6
CONTINUOUS
 62
     1
 10
243.851792081
 20
211.865855003
 30
0.0
 11
252.851792081
 21
211.865855003
 31
0.0
  0
LINE
  8
0
  6
CONTINUOUS
 62
     1
 10
243.851792081
 20
210.865855003
 30
0.0
 11
252.851792081
 21
210.865855003
 31
0.0
  0
ARC
  8
0
  6
CONTINUOUS
 62
     1
 10
243.851792081
 20
211.365855003
 30
0.0
 40
0.5
 50
90.0
 51
270.0
  0
ARC
  8
0
  6
CONTINUOUS
 62
     1
 10
252.851792081
 20
211.365855003
 30
0.0
 40
0.5
 50
270.0
 51
90.0
  0
LINE
  8
0
  6
CONTINUOUS
 62
     1
 10
243.851792081
 20
213.865855003
 30
0.0
 11
252.851792081
 21
213.865855003
 31
0.0
  0
LINE
  8
0
  6
CONTINUOUS
 62
     1
 10
243.851792081
 20
212.865855003
 30
0.0
 11
252.851792081
 21
212.865855003
 31
0.0
  0
ARC
  8
0
  6
CONTINUOUS
 62
     1
 10
243.851792081
 20
213.365855003
 30
0.0
 40
0.5
 50
90.0
 51
270.0
  0
ARC
  8
0
  6
CONTINUOUS
 62
     1
 10
252.851792081
 20
213.365855003
 30
0.0
 40
0.5
 50
270.0
 51
90.0
  0
LINE
  8
0
  6
CONTINUOUS
 62
     1
 10
243.851792081
 20
215.865855003
 30
0.0
 11
252.851792081
 21
215.865855003
 31
0.0
  0
LINE
  8
0
  6
CONTINUOUS
 62
     1
 10
243.851792081
 20
214.865855003
 30
0.0
 11
252.851792081
 21
214.865855003
 31
0.0
  0
ARC
  8
0
  6
CONTINUOUS
 62
     1
 10
243.851792081
 20
215.365855003
 30
0.0
 40
0.5
 50
90.0
 51
270.0
  0
ARC
  8
0
  6
CONTINUOUS
 62
     1
 10
252.851792081
 20
215.365855003
 30
0.0
 40
0.5
 50
270.0
 51
90.0
  0
LINE
  8
0
  6
CONTINUOUS
 62
     1
 10
243.851792081
 20
217.865855003
 30
0.0
 11
252.851792081
 21
217.865855003
 31
0.0
  0
LINE
  8
0
  6
CONTINUOUS
 62
     1
 10
243.851792081
 20
216.865855003
 30
0.0
 11
252.851792081
 21
216.865855003
 31
0.0
  0
ARC
  8
0
  6
CONTINUOUS
 62
     1
 10
243.851792081
 20
217.365855003
 30
0.0
 40
0.5
 50
90.0
 51
270.0
  0
ARC
  8
0
  6
CONTINUOUS
 62
     1
 10
252.851792081
 20
217.365855003
 30
0.0
 40
0.5
 50
270.0
 51
90.0
  0
LINE
  8
0
  6
CONTINUOUS
 62
     1
 10
243.851792081
 20
219.865855003
 30
0.0
 11
252.851792081
 21
219.865855003
 31
0.0
  0
LINE
  8
0
  6
CONTINUOUS
 62
     1
 10
243.851792081
 20
218.865855003
 30
0.0
 11
252.851792081
 21
218.865855003
 31
0.0
  0
ARC
  8
0
  6
CONTINUOUS
 62
     1
 10
243.851792081
 20
219.365855003
 30
0.0
 40
0.5
 50
90.0
 51
270.0
  0
ARC
  8
0
  6
CONTINUOUS
 62
     1
 10
252.851792081
 20
219.365855003
 30
0.0
 40
0.5
 50
270.0
 51
90.0
  0
LINE
  8
0
  6
CONTINUOUS
 62
     1
 10
243.851792081
 20
221.865855003
 30
0.0
 11
252.851792081
 21
221.865855003
 31
0.0
  0
LINE
  8
0
  6
CONTINUOUS
 62
     1
 10
243.851792081
 20
220.865855003
 30
0.0
 11
252.851792081
 21
220.865855003
 31
0.0
  0
ARC
  8
0
  6
CONTINUOUS
 62
     1
 10
243.851792081
 20
221.365855003
 30
0.0
 40
0.5
 50
90.0
 51
270.0
  0
ARC
  8
0
  6
CONTINUOUS
 62
     1
 10
252.851792081
 20
221.365855003
 30
0.0
 40
0.5
 50
270.0
 51
90.0
  0
LINE
  8
0
  6
CONTINUOUS
 62
     1
 10
243.851792081
 20
197.865855003
 30
0.0
 11
252.851792081
 21
197.865855003
 31
0.0
  0
LINE
  8
0
  6
CONTINUOUS
 62
     1
 10
243.851792081
 20
196.865855003
 30
0.0
 11
252.851792081
 21
196.865855003
 31
0.0
  0
ARC
  8
0
  6
CONTINUOUS
 62
     1
 10
243.851792081
 20
197.365855003
 30
0.0
 40
0.5
 50
90.0
 51
270.0
  0
ARC
  8
0
  6
CONTINUOUS
 62
     1
 10
252.851792081
 20
197.365855003
 30
0.0
 40
0.5
 50
270.0
 51
90.0
  0
LINE
  8
0
  6
CONTINUOUS
 62
     1
 10
243.851792081
 20
195.865855003
 30
0.0
 11
252.851792081
 21
195.865855003
 31
0.0
  0
LINE
  8
0
  6
CONTINUOUS
 62
     1
 10
243.851792081
 20
194.865855003
 30
0.0
 11
252.851792081
 21
194.865855003
 31
0.0
  0
ARC
  8
0
  6
CONTINUOUS
 62
     1
 10
243.851792081
 20
195.365855003
 30
0.0
 40
0.5
 50
90.0
 51
270.0
  0
ARC
  8
0
  6
CONTINUOUS
 62
     1
 10
252.851792081
 20
195.365855003
 30
0.0
 40
0.5
 50
270.0
 51
90.0
  0
LINE
  8
0
  6
CONTINUOUS
 62
     1
 10
256.351792081
 20
206.365855003
 30
0.0
 11
256.351792081
 21
208.365855003
 31
0.0
  0
LINE
  8
0
  6
CONTINUOUS
 62
     1
 10
255.101792081
 20
208.365855003
 30
0.0
 11
256.351792081
 21
208.365855003
 31
0.0
  0
LINE
  8
0
  6
CONTINUOUS
 62
     1
 10
255.101792081
 20
206.365855003
 30
0.0
 11
256.351792081
 21
206.365855003
 31
0.0
  0
LINE
  8
0
  6
CONTINUOUS
 62
     1
 10
255.951792081
 20
206.365855003
 30
0.0
 11
255.951792081
 21
208.365855003
 31
0.0
  0
LINE
  8
0
  6
CONTINUOUS
 62
     1
 10
255.101792081
 20
191.115855003
 30
0.0
 11
256.351792081
 21
191.115855003
 31
0.0
  0
LINE
  8
0
  6
CONTINUOUS
 62
     1
 10
255.101792081
 20
190.865855003
 30
0.0
 11
256.351792081
 21
190.865855003
 31
0.0
  0
LINE
  8
0
  6
CONTINUOUS
 62
     1
 10
255.101792081
 20
188.615855003
 30
0.0
 11
256.351792081
 21
188.615855003
 31
0.0
  0
LINE
  8
0
  6
CONTINUOUS
 62
     1
 10
255.101792081
 20
188.865855003
 30
0.0
 11
256.351792081
 21
188.865855003
 31
0.0
  0
LINE
  8
0
  6
CONTINUOUS
 62
     1
 10
256.351792081
 20
188.615855003
 30
0.0
 11
256.351792081
 21
191.115855003
 31
0.0
  0
LINE
  8
0
  6
CONTINUOUS
 62
     1
 10
255.101792081
 20
191.115855003
 30
0.0
 11
255.101792081
 21
188.615855003
 31
0.0
  0
LINE
  8
0
  6
CONTINUOUS
 62
     1
 10
256.351792081
 20
188.865855003
 30
0.0
 11
256.351792081
 21
190.865855003
 31
0.0
  0
LINE
  8
0
  6
CONTINUOUS
 62
     1
 10
255.951792081
 20
188.865855003
 30
0.0
 11
255.951792081
 21
190.865855003
 31
0.0
  0
LINE
  8
0
  6
CONTINUOUS
 62
     1
 10
255.101792081
 20
173.615855003
 30
0.0
 11
255.101792081
 21
171.115855003
 31
0.0
  0
LINE
  8
0
  6
CONTINUOUS
 62
     1
 10
256.351792081
 20
171.115855003
 30
0.0
 11
256.351792081
 21
173.615855003
 31
0.0
  0
LINE
  8
0
  6
CONTINUOUS
 62
     1
 10
256.351792081
 20
171.365855003
 30
0.0
 11
256.351792081
 21
173.365855003
 31
0.0
  0
LINE
  8
0
  6
CONTINUOUS
 62
     1
 10
259.101792061
 20
170.865855003
 30
0.0
 11
261.60179241
 21
170.865855003
 31
0.0
  0
LINE
  8
0
  6
CONTINUOUS
 62
     1
 10
259.101792061
 20
168.865855003
 30
0.0
 11
261.601792424
 21
168.865855003
 31
0.0
  0
LINE
  8
0
  6
CONTINUOUS
 62
     1
 10
260.601792346
 20
167.940855066
 30
0.0
 11
259.101792071
 21
167.940855066
 31
0.0
  0
LINE
  8
0
  6
CONTINUOUS
 62
     1
 10
260.601792371
 20
164.440855066
 30
0.0
 11
259.101792071
 21
164.440855066
 31
0.0
  0
LINE
  8
0
  6
CONTINUOUS
 62
     1
 10
260.601792371
 20
164.440855066
 30
0.0
 11
260.601792346
 21
167.940855066
 31
0.0
  0
LINE
  8
0
  6
CONTINUOUS
 62
     1
 10
260.501792359
 20
167.815855066
 30
0.0
 11
260.501792359
 21
164.565855066
 31
0.0
  0
LINE
  8
0
  6
CONTINUOUS
 62
     1
 10
260.101792359
 20
167.815855066
 30
0.0
 11
260.101792359
 21
164.565855066
 31
0.0
  0
LINE
  8
0
  6
CONTINUOUS
 62
     1
 10
259.101792359
 20
167.815855066
 30
0.0
 11
260.601792347
 21
167.815855066
 31
0.0
  0
LINE
  8
0
  6
CONTINUOUS
 62
     1
 10
259.101792359
 20
164.565855066
 30
0.0
 11
260.60179237
 21
164.565855066
 31
0.0
  0
LINE
  8
0
  6
CONTINUOUS
 62
     1
 10
259.101792071
 20
155.665855003
 30
0.0
 11
259.101792071
 21
224.065857053
 31
0.0
  0
LINE
  8
0
  6
CONTINUOUS
 62
     1
 10
260.501792359
 20
167.815855066
 30
0.0
 11
260.501792359
 21
164.565855066
 31
0.0
  0
LINE
  8
0
  6
CONTINUOUS
 62
     1
 10
255.101792081
 20
173.615855003
 30
0.0
 11
256.351792081
 21
173.615855003
 31
0.0
  0
LINE
  8
0
  6
CONTINUOUS
 62
     1
 10
255.101792081
 20
171.115855003
 30
0.0
 11
256.351792081
 21
171.115855003
 31
0.0
  0
LINE
  8
0
  6
CONTINUOUS
 62
     1
 10
255.101792081
 20
173.365855003
 30
0.0
 11
256.351792081
 21
173.365855003
 31
0.0
  0
LINE
  8
0
  6
CONTINUOUS
 62
     1
 10
255.101792081
 20
171.365855003
 30
0.0
 11
256.351792081
 21
171.365855003
 31
0.0
  0
LINE
  8
0
  6
CONTINUOUS
 62
     1
 10
255.951792081
 20
171.365855003
 30
0.0
 11
255.951792081
 21
173.365855003
 31
0.0
  0
LINE
  8
0
  6
CONTINUOUS
 62
     1
 10
259.101792081
 20
187.365855003
 30
0.0
 11
261.601792324
 21
187.365855003
 31
0.0
  0
LINE
  8
0
  6
CONTINUOUS
 62
     1
 10
259.101792081
 20
189.365855003
 30
0.0
 11
261.60179231
 21
189.365855003
 31
0.0
  0
LINE
  8
0
  6
CONTINUOUS
 62
     1
 10
259.101792179
 20
190.565800991
 30
0.0
 11
260.60179219
 21
190.565800991
 31
0.0
  0
LINE
  8
0
  6
CONTINUOUS
 62
     1
 10
259.101792179
 20
190.440800991
 30
0.0
 11
260.601792168
 21
190.440800991
 31
0.0
  0
LINE
  8
0
  6
CONTINUOUS
 62
     1
 10
260.601792191
 20
190.440800991
 30
0.0
 11
260.601792167
 21
193.940800991
 31
0.0
  0
LINE
  8
0
  6
CONTINUOUS
 62
     1
 10
260.501792179
 20
193.815800991
 30
0.0
 11
260.501792179
 21
190.565800991
 31
0.0
  0
LINE
  8
0
  6
CONTINUOUS
 62
     1
 10
260.101792179
 20
193.815800991
 30
0.0
 11
260.101792179
 21
190.565800991
 31
0.0
  0
LINE
  8
0
  6
CONTINUOUS
 62
     1
 10
259.101792179
 20
193.815800991
 30
0.0
 11
260.601792168
 21
193.815800991
 31
0.0
  0
LINE
  8
0
  6
CONTINUOUS
 62
     1
 10
259.101792179
 20
193.940800991
 30
0.0
 11
260.601792168
 21
193.940800991
 31
0.0
  0
LINE
  8
0
  6
CONTINUOUS
 62
     1
 10
259.101792071
 20
208.365855003
 30
0.0
 11
266.851778462
 21
208.365855003
 31
0.0
  0
LINE
  8
0
  6
CONTINUOUS
 62
     1
 10
259.101792071
 20
206.365855003
 30
0.0
 11
266.851778476
 21
206.365855003
 31
0.0
  0
LINE
  8
0
  6
LTYPE2
 62
     1
 10
195.013458271
 20
227.065857053
 30
0.0
 11
251.221201283
 21
227.065857053
 31
0.0
  0
LINE
  8
0
  6
LTYPE2
 62
     1
 10
171.826461674
 20
189.865855003
 30
0.0
 11
273.660495594
 21
189.865855003
 31
0.0
  0
LINE
  8
0
  6
LTYPE2
 62
     1
 10
195.013458271
 20
152.665852952
 30
0.0
 11
251.601792081
 21
152.665852952
 31
0.0
  0
LINE
  8
0
  6
CONTINUOUS
 62
     1
 10
204.101792081
 20
154.665852952
 30
0.0
 11
204.101792081
 21
155.665852952
 31
0.0
  0
LINE
  8
0
  6
CONTINUOUS
 62
     1
 10
232.601792081
 20
154.665852952
 30
0.0
 11
232.601792081
 21
155.665852952
 31
0.0
  0
LINE
  8
0
  6
CONTINUOUS
 62
     1
 10
205.101792081
 20
155.665852952
 30
0.0
 11
205.101792081
 21
154.665852952
 31
0.0
  0
LINE
  8
020
  6
CONTINUOUS
 62
     2
 10
85.263413867
 20
73.044010808
 30
0.0
 11
85.263413867
 21
93.744010808
 31
0.0
  0
LINE
  8
020
  6
CONTINUOUS
 62
     2
 10
85.263413867
 20
93.744010808
 30
0.0
 11
105.963413867
 21
93.744010808
 31
0.0
  0
LINE
  8
020
  6
CONTINUOUS
 62
     2
 10
105.963413867
 20
43.044010808
 30
0.0
 11
105.963413867
 21
63.744010808
 31
0.0
  0
LINE
  8
020
  6
CONTINUOUS
 62
     2
 10
85.263413867
 20
63.744010808
 30
0.0
 11
105.963413867
 21
63.744010808
 31
0.0
  0
LINE
  8
020
  6
CONTINUOUS
 62
     2
 10
115.263413867
 20
43.044010808
 30
0.0
 11
115.263413867
 21
63.744010808
 31
0.0
  0
LINE
  8
020
  6
CONTINUOUS
 62
     2
 10
115.263413867
 20
63.744010808
 30
0.0
 11
135.963413867
 21
63.744010808
 31
0.0
  0
LINE
  8
020
  6
CONTINUOUS
 62
     2
 10
115.263413867
 20
73.044010808
 30
0.0
 11
115.263413867
 21
93.744010808
 31
0.0
  0
LINE
  8
020
  6
CONTINUOUS
 62
     2
 10
115.263413867
 20
73.044010808
 30
0.0
 11
135.963413867
 21
73.044010808
 31
0.0
  0
LINE
  8
020
  6
CONTINUOUS
 62
     2
 10
105.963413867
 20
73.044010808
 30
0.0
 11
105.963413867
 21
93.744010808
 31
0.0
  0
LINE
  8
020
  6
CONTINUOUS
 62
     2
 10
85.263413867
 20
73.044010808
 30
0.0
 11
105.963413867
 21
73.044010808
 31
0.0
  0
LINE
  8
020
  6
CONTINUOUS
 62
     2
 10
135.963413867
 20
73.044010808
 30
0.0
 11
135.963413867
 21
93.744010808
 31
0.0
  0
LINE
  8
020
  6
CONTINUOUS
 62
     2
 10
115.263413867
 20
93.744010808
 30
0.0
 11
135.963413867
 21
93.744010808
 31
0.0
  0
LINE
  8
020
  6
CONTINUOUS
 62
     2
 10
135.963413867
 20
43.044010808
 30
0.0
 11
135.963413867
 21
63.744010808
 31
0.0
  0
LINE
  8
020
  6
CONTINUOUS
 62
     2
 10
115.263413867
 20
43.044010808
 30
0.0
 11
135.963413867
 21
43.044010808
 31
0.0
  0
LINE
  8
020
  6
CONTINUOUS
 62
     2
 10
85.263413867
 20
43.044010808
 30
0.0
 11
105.963413867
 21
43.044010808
 31
0.0
  0
LINE
  8
020
  6
CONTINUOUS
 62
     2
 10
85.263413867
 20
43.044010808
 30
0.0
 11
85.263413867
 21
63.744010808
 31
0.0
  0
LINE
  8
020
  6
CONTINUOUS
 62
     1
 10
82.379964266
 20
53.394010808
 30
0.0
 11
74.263413867
 21
53.394010808
 31
0.0
  0
LINE
  8
020
  6
CONTINUOUS
 62
     1
 10
76.263413867
 20
53.394010808
 30
0.0
 11
76.263413867
 21
83.394010808
 31
0.0
  0
LINE
  8
020
  6
CONTINUOUS
 62
     1
 10
75.663413843
 20
55.394010808
 30
0.0
 11
76.263413867
 21
53.394010808
 31
0.0
  0
LINE
  8
020
  6
CONTINUOUS
 62
     1
 10
76.263413867
 20
53.394010808
 30
0.0
 11
76.863413891
 21
55.394010808
 31
0.0
  0
LINE
  8
020
  6
CONTINUOUS
 62
     1
 10
75.663413843
 20
81.394010808
 30
0.0
 11
76.263413867
 21
83.394010808
 31
0.0
  0
LINE
  8
020
  6
CONTINUOUS
 62
     1
 10
76.263413867
 20
83.394010808
 30
0.0
 11
76.863413891
 21
81.394010808
 31
0.0
  0
LINE
  8
020
  6
CONTINUOUS
 62
     1
 10
82.379964266
 20
83.394010808
 30
0.0
 11
74.263413867
 21
83.394010808
 31
0.0
  0
TEXT
  8
020
  6
CONTINUOUS
 62
     1
 10
75.763413867
 20
60.644011047
 30
0.0
 40
3.099999905
  1
２００以上
 50
90.0
 41
1.0
 51
0.0
  7
KANJI0
  0
LINE
  8
020
  6
CONTINUOUS
 62
     1
 10
95.613413867
 20
97.319133955
 30
0.0
 11
95.613413867
 21
104.744010808
 31
0.0
  0
LINE
  8
020
  6
CONTINUOUS
 62
     1
 10
95.613413867
 20
102.744010808
 30
0.0
 11
125.613413867
 21
102.744010808
 31
0.0
  0
LINE
  8
020
  6
CONTINUOUS
 62
     1
 10
97.613413867
 20
103.344010832
 30
0.0
 11
95.613413867
 21
102.744010808
 31
0.0
  0
LINE
  8
020
  6
CONTINUOUS
 62
     1
 10
95.613413867
 20
102.744010808
 30
0.0
 11
97.613413867
 21
102.144010785
 31
0.0
  0
LINE
  8
020
  6
CONTINUOUS
 62
     1
 10
123.613413867
 20
103.344010832
 30
0.0
 11
125.613413867
 21
102.744010808
 31
0.0
  0
LINE
  8
020
  6
CONTINUOUS
 62
     1
 10
125.613413867
 20
102.744010808
 30
0.0
 11
123.613413867
 21
102.144010785
 31
0.0
  0
LINE
  8
020
  6
CONTINUOUS
 62
     1
 10
125.613413867
 20
97.319133955
 30
0.0
 11
125.613413867
 21
104.744010808
 31
0.0
  0
TEXT
  8
020
  6
CONTINUOUS
 62
     1
 10
102.863414105
 20
103.244010808
 30
0.0
 40
3.099999905
  1
２００以上
 50
0.0
 41
1.0
 51
0.0
  7
KANJI0
  0
LINE
  8
020
  6
CONTINUOUS
 62
     1
 10
136.763413879
 20
43.044010808
 30
0.0
 11
146.963413867
 21
43.044010808
 31
0.0
  0
LINE
  8
020
  6
CONTINUOUS
 62
     1
 10
144.963413867
 20
43.044010808
 30
0.0
 11
144.963413867
 21
63.744010808
 31
0.0
  0
LINE
  8
020
  6
CONTINUOUS
 62
     1
 10
144.363413843
 20
45.044010808
 30
0.0
 11
144.963413867
 21
43.044010808
 31
0.0
  0
LINE
  8
020
  6
CONTINUOUS
 62
     1
 10
144.963413867
 20
43.044010808
 30
0.0
 11
145.563413891
 21
45.044010808
 31
0.0
  0
LINE
  8
020
  6
CONTINUOUS
 62
     1
 10
144.363413843
 20
61.744010808
 30
0.0
 11
144.963413867
 21
63.744010808
 31
0.0
  0
LINE
  8
020
  6
CONTINUOUS
 62
     1
 10
144.963413867
 20
63.744010808
 30
0.0
 11
145.563413891
 21
61.744010808
 31
0.0
  0
LINE
  8
020
  6
CONTINUOUS
 62
     1
 10
136.763413879
 20
63.744010808
 30
0.0
 11
146.963413867
 21
63.744010808
 31
0.0
  0
TEXT
  8
020
  6
CONTINUOUS
 62
     1
 10
144.463413867
 20
45.084011071
 30
0.0
 40
3.099999905
  1
１３８
 50
90.0
 41
1.0
 51
0.0
  7
KANJI0
  0
TEXT
  8
020
  6
CONTINUOUS
 62
     1
 10
142.603413924
 20
54.384010785
 30
0.0
 40
1.859999943
  1
＋１
 50
90.0
 41
1.0
 51
0.0
  7
KANJI1
  0
TEXT
  8
020
  6
CONTINUOUS
 62
     1
 10
144.463413867
 20
54.384010785
 30
0.0
 40
1.859999943
  1
－０
 50
90.0
 41
1.0
 51
0.0
  7
KANJI1
  0
LINE
  8
020
  6
CONTINUOUS
 62
     1
 10
115.263413867
 20
42.244010796
 30
0.0
 11
115.263413867
 21
32.044010808
 31
0.0
  0
LINE
  8
020
  6
CONTINUOUS
 62
     1
 10
115.263413867
 20
34.044010808
 30
0.0
 11
135.963413867
 21
34.044010808
 31
0.0
  0
LINE
  8
020
  6
CONTINUOUS
 62
     1
 10
117.263413867
 20
34.644010832
 30
0.0
 11
115.263413867
 21
34.044010808
 31
0.0
  0
LINE
  8
020
  6
CONTINUOUS
 62
     1
 10
115.263413867
 20
34.044010808
 30
0.0
 11
117.263413867
 21
33.444010785
 31
0.0
  0
LINE
  8
020
  6
CONTINUOUS
 62
     1
 10
133.963413867
 20
34.644010832
 30
0.0
 11
135.963413867
 21
34.044010808
 31
0.0
  0
LINE
  8
020
  6
CONTINUOUS
 62
     1
 10
135.963413867
 20
34.044010808
 30
0.0
 11
133.963413867
 21
33.444010785
 31
0.0
  0
LINE
  8
020
  6
CONTINUOUS
 62
     1
 10
135.963413867
 20
42.244010796
 30
0.0
 11
135.963413867
 21
32.044010808
 31
0.0
  0
TEXT
  8
020
  6
CONTINUOUS
 62
     1
 10
117.30341413
 20
34.544010808
 30
0.0
 40
3.099999905
  1
１３８
 50
0.0
 41
1.0
 51
0.0
  7
KANJI0
  0
TEXT
  8
020
  6
CONTINUOUS
 62
     1
 10
126.603413844
 20
34.544010808
 30
0.0
 40
1.859999943
  1
－０
 50
0.0
 41
1.0
 51
0.0
  7
KANJI1
  0
LINE
  8
020
  6
LTYPE2
 62
     1
 10
83.179964278
 20
83.394010808
 30
0.0
 11
139.780261796
 21
83.394010808
 31
0.0
  0
LINE
  8
020
  6
LTYPE2
 62
     1
 10
95.613413867
 20
40.266086758
 30
0.0
 11
95.613413867
 21
96.519133943
 31
0.0
  0
LINE
  8
020
  6
LTYPE2
 62
     1
 10
83.179964278
 20
53.394010808
 30
0.0
 11
139.780261796
 21
53.394010808
 31
0.0
  0
LINE
  8
020
  6
LTYPE2
 62
     1
 10
125.613413867
 20
40.266086758
 30
0.0
 11
125.613413867
 21
96.519133943
 31
0.0
  0
LINE
  8
0
  6
CONTINUOUS
 62
     1
 10
309.097676394
 20
175.4
 30
0.0
 11
312.847677598
 21
175.4
 31
0.0
  0
CIRCLE
  8
011
  6
CONTINUOUS
 62
     1
 10
310.972686697
 20
173.231196133
 30
0.0
 40
1.25
  0
LINE
  8
0
  6
CONTINUOUS
 62
     1
 10
309.097676394
 20
170.5
 30
0.0
 11
312.847677598
 21
170.5
 31
0.0
  0
LINE
  8
0
  6
CONTINUOUS
 62
     1
 10
310.472686697
 20
173.731196133
 30
0.0
 11
311.472686697
 21
172.731196133
 31
0.0
  0
LINE
  8
0
  6
CONTINUOUS
 62
     1
 10
311.472686697
 20
173.731196133
 30
0.0
 11
310.472686697
 21
172.731196133
 31
0.0
  0
TEXT
  8
0
  6
CONTINUOUS
 62
     1
 10
309.372686697
 20
168.431196133
 30
-0.2
 40
1.7
  1
４＋
 50
0.0
 41
0.941176471
 51
0.0
  7
KANJI4
  0
TEXT
  8
0
  6
CONTINUOUS
 62
     1
 10
310.272686697
 20
166.431196133
 30
-0.2
 40
1.7
  1
Ｂ
 50
0.0
 41
0.941176471
 51
0.0
  7
KANJI4
  0
LINE
  8
0
  6
CONTINUOUS
 62
     1
 10
309.097676394
 20
166.235816568
 30
0.0
 11
312.847677598
 21
166.235816568
 31
0.0
  0
LINE
  8
0
  6
CONTINUOUS
 62
     1
 10
309.097676394
 20
165.4
 30
0.0
 11
312.847677598
 21
165.4
 31
0.0
  0
CIRCLE
  8
011
  6
CONTINUOUS
 62
     1
 10
310.972686697
 20
163.231196133
 30
0.0
 40
1.25
  0
LINE
  8
0
  6
CONTINUOUS
 62
     1
 10
309.097676394
 20
160.5
 30
0.0
 11
312.847677598
 21
160.5
 31
0.0
  0
LINE
  8
0
  6
CONTINUOUS
 62
     1
 10
310.472686697
 20
163.731196133
 30
0.0
 11
311.472686697
 21
162.731196133
 31
0.0
  0
LINE
  8
0
  6
CONTINUOUS
 62
     1
 10
311.472686697
 20
163.731196133
 30
0.0
 11
310.472686697
 21
162.731196133
 31
0.0
  0
TEXT
  8
0
  6
CONTINUOUS
 62
     1
 10
310.272686697
 20
156.431196133
 30
-0.2
 40
1.7
  1
Ｂ
 50
0.0
 41
0.941176471
 51
0.0
  7
KANJI4
  0
TEXT
  8
0
  6
CONTINUOUS
 62
     1
 10
309.372686697
 20
158.431196133
 30
-0.2
 40
1.7
  1
１＋
 50
0.0
 41
0.941176471
 51
0.0
  7
KANJI4
  0
LINE
  8
0
  6
CONTINUOUS
 62
     1
 10
313.597677598
 20
175.4
 30
0.0
 11
317.347678802
 21
175.4
 31
0.0
  0
CIRCLE
  8
011
  6
CONTINUOUS
 62
     1
 10
315.472687901
 20
173.231196133
 30
0.0
 40
1.25
  0
LINE
  8
0
  6
CONTINUOUS
 62
     1
 10
313.597677598
 20
170.5
 30
0.0
 11
317.347678802
 21
170.5
 31
0.0
  0
LINE
  8
0
  6
CONTINUOUS
 62
     1
 10
314.972687901
 20
173.731196133
 30
0.0
 11
315.972687901
 21
172.731196133
 31
0.0
  0
LINE
  8
0
  6
CONTINUOUS
 62
     1
 10
315.972687901
 20
173.731196133
 30
0.0
 11
314.972687901
 21
172.731196133
 31
0.0
  0
TEXT
  8
0
  6
CONTINUOUS
 62
     1
 10
314.772687901
 20
166.431196133
 30
-0.2
 40
1.7
  1
Ｂ
 50
0.0
 41
0.941176471
 51
0.0
  7
KANJI4
  0
LINE
  8
0
  6
CONTINUOUS
 62
     1
 10
313.597677598
 20
166.235816568
 30
0.0
 11
317.347678802
 21
166.235816568
 31
0.0
  0
LINE
  8
0
  6
CONTINUOUS
 62
     1
 10
313.597677598
 20
165.4
 30
0.0
 11
317.347678802
 21
165.4
 31
0.0
  0
CIRCLE
  8
011
  6
CONTINUOUS
 62
     1
 10
315.472687901
 20
163.231196133
 30
0.0
 40
1.25
  0
LINE
  8
0
  6
CONTINUOUS
 62
     1
 10
313.597677598
 20
160.5
 30
0.0
 11
317.347678802
 21
160.5
 31
0.0
  0
LINE
  8
0
  6
CONTINUOUS
 62
     1
 10
314.972687901
 20
163.731196133
 30
0.0
 11
315.972687901
 21
162.731196133
 31
0.0
  0
LINE
  8
0
  6
CONTINUOUS
 62
     1
 10
315.972687901
 20
163.731196133
 30
0.0
 11
314.972687901
 21
162.731196133
 31
0.0
  0
TEXT
  8
0
  6
CONTINUOUS
 62
     1
 10
314.772687901
 20
156.431196133
 30
-0.2
 40
1.7
  1
Ｂ
 50
0.0
 41
0.941176471
 51
0.0
  7
KANJI4
  0
LINE
  8
0
  6
CONTINUOUS
 62
     1
 10
318.097678802
 20
175.4
 30
0.0
 11
321.847680006
 21
175.4
 31
0.0
  0
CIRCLE
  8
011
  6
CONTINUOUS
 62
     1
 10
319.972689105
 20
173.231196133
 30
0.0
 40
1.25
  0
LINE
  8
0
  6
CONTINUOUS
 62
     1
 10
318.097678802
 20
170.5
 30
0.0
 11
321.847680006
 21
170.5
 31
0.0
  0
LINE
  8
0
  6
CONTINUOUS
 62
     1
 10
319.472689105
 20
173.731196133
 30
0.0
 11
320.472689105
 21
172.731196133
 31
0.0
  0
LINE
  8
0
  6
CONTINUOUS
 62
     1
 10
320.472689105
 20
173.731196133
 30
0.0
 11
319.472689105
 21
172.731196133
 31
0.0
  0
LINE
  8
0
  6
CONTINUOUS
 62
     1
 10
318.097678802
 20
166.235816568
 30
0.0
 11
321.847680006
 21
166.235816568
 31
0.0
  0
LINE
  8
0
  6
CONTINUOUS
 62
     1
 10
318.097678802
 20
165.4
 30
0.0
 11
321.847680006
 21
165.4
 31
0.0
  0
CIRCLE
  8
011
  6
CONTINUOUS
 62
     1
 10
319.972689105
 20
163.231196133
 30
0.0
 40
1.25
  0
LINE
  8
0
  6
CONTINUOUS
 62
     1
 10
318.097678802
 20
160.5
 30
0.0
 11
321.847680006
 21
160.5
 31
0.0
  0
LINE
  8
0
  6
CONTINUOUS
 62
     1
 10
319.472689105
 20
163.731196133
 30
0.0
 11
320.472689105
 21
162.731196133
 31
0.0
  0
LINE
  8
0
  6
CONTINUOUS
 62
     1
 10
320.472689105
 20
163.731196133
 30
0.0
 11
319.472689105
 21
162.731196133
 31
0.0
  0
LINE
  8
0
  6
CONTINUOUS
 62
     1
 10
322.597680006
 20
175.4
 30
0.0
 11
326.34768121
 21
175.4
 31
0.0
  0
CIRCLE
  8
011
  6
CONTINUOUS
 62
     1
 10
324.472690309
 20
173.231196133
 30
0.0
 40
1.25
  0
LINE
  8
0
  6
CONTINUOUS
 62
     1
 10
322.597680006
 20
170.5
 30
0.0
 11
326.34768121
 21
170.5
 31
0.0
  0
LINE
  8
0
  6
CONTINUOUS
 62
     1
 10
323.972690309
 20
173.731196133
 30
0.0
 11
324.972690309
 21
172.731196133
 31
0.0
  0
LINE
  8
0
  6
CONTINUOUS
 62
     1
 10
324.972690309
 20
173.731196133
 30
0.0
 11
323.972690309
 21
172.731196133
 31
0.0
  0
TEXT
  8
0
  6
CONTINUOUS
 62
     1
 10
323.772690309
 20
166.431196133
 30
-0.2
 40
1.7
  1
Ｂ
 50
0.0
 41
0.941176471
 51
0.0
  7
KANJI4
  0
LINE
  8
0
  6
CONTINUOUS
 62
     1
 10
322.597680006
 20
166.235816568
 30
0.0
 11
326.34768121
 21
166.235816568
 31
0.0
  0
LINE
  8
0
  6
CONTINUOUS
 62
     1
 10
322.597680006
 20
165.4
 30
0.0
 11
326.34768121
 21
165.4
 31
0.0
  0
CIRCLE
  8
011
  6
CONTINUOUS
 62
     1
 10
324.472690309
 20
163.231196133
 30
0.0
 40
1.25
  0
LINE
  8
0
  6
CONTINUOUS
 62
     1
 10
322.597680006
 20
160.5
 30
0.0
 11
326.34768121
 21
160.5
 31
0.0
  0
LINE
  8
0
  6
CONTINUOUS
 62
     1
 10
323.972690309
 20
163.731196133
 30
0.0
 11
324.972690309
 21
162.731196133
 31
0.0
  0
LINE
  8
0
  6
CONTINUOUS
 62
     1
 10
324.972690309
 20
163.731196133
 30
0.0
 11
323.972690309
 21
162.731196133
 31
0.0
  0
TEXT
  8
0
  6
CONTINUOUS
 62
     1
 10
323.772690309
 20
156.431196133
 30
-0.2
 40
1.7
  1
Ｂ
 50
0.0
 41
0.941176471
 51
0.0
  7
KANJI4
  0
LINE
  8
0
  6
CONTINUOUS
 62
     1
 10
327.09768121
 20
175.4
 30
0.0
 11
330.847682414
 21
175.4
 31
0.0
  0
CIRCLE
  8
011
  6
CONTINUOUS
 62
     1
 10
328.972691513
 20
173.231196133
 30
0.0
 40
1.25
  0
LINE
  8
0
  6
CONTINUOUS
 62
     1
 10
327.09768121
 20
170.5
 30
0.0
 11
330.847682414
 21
170.5
 31
0.0
  0
LINE
  8
0
  6
CONTINUOUS
 62
     1
 10
328.472691513
 20
173.731196133
 30
0.0
 11
329.472691513
 21
172.731196133
 31
0.0
  0
LINE
  8
0
  6
CONTINUOUS
 62
     1
 10
329.472691513
 20
173.731196133
 30
0.0
 11
328.472691513
 21
172.731196133
 31
0.0
  0
TEXT
  8
0
  6
CONTINUOUS
 62
     1
 10
328.272691513
 20
166.431196133
 30
-0.2
 40
1.7
  1
Ｂ
 50
0.0
 41
0.941176471
 51
0.0
  7
KANJI4
  0
LINE
  8
0
  6
CONTINUOUS
 62
     1
 10
327.09768121
 20
166.235816568
 30
0.0
 11
330.847682414
 21
166.235816568
 31
0.0
  0
LINE
  8
0
  6
CONTINUOUS
 62
     1
 10
327.09768121
 20
165.4
 30
0.0
 11
330.847682414
 21
165.4
 31
0.0
  0
CIRCLE
  8
011
  6
CONTINUOUS
 62
     1
 10
328.972691513
 20
163.231196133
 30
0.0
 40
1.25
  0
LINE
  8
0
  6
CONTINUOUS
 62
     1
 10
327.09768121
 20
160.5
 30
0.0
 11
330.847682414
 21
160.5
 31
0.0
  0
LINE
  8
0
  6
CONTINUOUS
 62
     1
 10
328.472691513
 20
163.731196133
 30
0.0
 11
329.472691513
 21
162.731196133
 31
0.0
  0
LINE
  8
0
  6
CONTINUOUS
 62
     1
 10
329.472691513
 20
163.731196133
 30
0.0
 11
328.472691513
 21
162.731196133
 31
0.0
  0
TEXT
  8
0
  6
CONTINUOUS
 62
     1
 10
328.272691513
 20
156.431196133
 30
-0.2
 40
1.7
  1
Ｂ
 50
0.0
 41
0.941176471
 51
0.0
  7
KANJI4
  0
LINE
  8
0
  6
CONTINUOUS
 62
     1
 10
331.597682414
 20
175.4
 30
0.0
 11
335.347683618
 21
175.4
 31
0.0
  0
CIRCLE
  8
011
  6
CONTINUOUS
 62
     1
 10
333.472692717
 20
173.231196133
 30
0.0
 40
1.25
  0
LINE
  8
0
  6
CONTINUOUS
 62
     1
 10
331.597682414
 20
170.5
 30
0.0
 11
335.347683618
 21
170.5
 31
0.0
  0
LINE
  8
0
  6
CONTINUOUS
 62
     1
 10
332.972692717
 20
173.731196133
 30
0.0
 11
333.972692717
 21
172.731196133
 31
0.0
  0
LINE
  8
0
  6
CONTINUOUS
 62
     1
 10
333.972692717
 20
173.731196133
 30
0.0
 11
332.972692717
 21
172.731196133
 31
0.0
  0
LINE
  8
0
  6
CONTINUOUS
 62
     1
 10
331.597682414
 20
166.235816568
 30
0.0
 11
335.347683618
 21
166.235816568
 31
0.0
  0
LINE
  8
0
  6
CONTINUOUS
 62
     1
 10
331.597682414
 20
165.4
 30
0.0
 11
335.347683618
 21
165.4
 31
0.0
  0
CIRCLE
  8
011
  6
CONTINUOUS
 62
     1
 10
333.472692717
 20
163.231196133
 30
0.0
 40
1.25
  0
LINE
  8
0
  6
CONTINUOUS
 62
     1
 10
331.597682414
 20
160.5
 30
0.0
 11
335.347683618
 21
160.5
 31
0.0
  0
LINE
  8
0
  6
CONTINUOUS
 62
     1
 10
332.972692717
 20
163.731196133
 30
0.0
 11
333.972692717
 21
162.731196133
 31
0.0
  0
LINE
  8
0
  6
CONTINUOUS
 62
     1
 10
333.972692717
 20
163.731196133
 30
0.0
 11
332.972692717
 21
162.731196133
 31
0.0
  0
LINE
  8
0
  6
CONTINUOUS
 62
     1
 10
336.097683618
 20
175.4
 30
0.0
 11
339.847684822
 21
175.4
 31
0.0
  0
CIRCLE
  8
011
  6
CONTINUOUS
 62
     1
 10
337.972693921
 20
173.231196133
 30
0.0
 40
1.25
  0
LINE
  8
0
  6
CONTINUOUS
 62
     1
 10
336.097683618
 20
170.5
 30
0.0
 11
339.847684822
 21
170.5
 31
0.0
  0
LINE
  8
0
  6
CONTINUOUS
 62
     1
 10
337.472693921
 20
173.731196133
 30
0.0
 11
338.472693921
 21
172.731196133
 31
0.0
  0
LINE
  8
0
  6
CONTINUOUS
 62
     1
 10
338.472693921
 20
173.731196133
 30
0.0
 11
337.472693921
 21
172.731196133
 31
0.0
  0
TEXT
  8
0
  6
CONTINUOUS
 62
     1
 10
337.272693921
 20
166.431196133
 30
-0.2
 40
1.7
  1
Ｂ
 50
0.0
 41
0.941176471
 51
0.0
  7
KANJI4
  0
LINE
  8
0
  6
CONTINUOUS
 62
     1
 10
336.097683618
 20
166.235816568
 30
0.0
 11
339.847684822
 21
166.235816568
 31
0.0
  0
LINE
  8
0
  6
CONTINUOUS
 62
     1
 10
336.097683618
 20
165.4
 30
0.0
 11
339.847684822
 21
165.4
 31
0.0
  0
CIRCLE
  8
011
  6
CONTINUOUS
 62
     1
 10
337.972693921
 20
163.231196133
 30
0.0
 40
1.25
  0
LINE
  8
0
  6
CONTINUOUS
 62
     1
 10
336.097683618
 20
160.5
 30
0.0
 11
339.847684822
 21
160.5
 31
0.0
  0
LINE
  8
0
  6
CONTINUOUS
 62
     1
 10
337.472693921
 20
163.731196133
 30
0.0
 11
338.472693921
 21
162.731196133
 31
0.0
  0
LINE
  8
0
  6
CONTINUOUS
 62
     1
 10
338.472693921
 20
163.731196133
 30
0.0
 11
337.472693921
 21
162.731196133
 31
0.0
  0
TEXT
  8
0
  6
CONTINUOUS
 62
     1
 10
337.272693921
 20
156.431196133
 30
-0.2
 40
1.7
  1
Ｂ
 50
0.0
 41
0.941176471
 51
0.0
  7
KANJI4
  0
LINE
  8
0
  6
CONTINUOUS
 62
     1
 10
340.597684822
 20
175.4
 30
0.0
 11
344.347686026
 21
175.4
 31
0.0
  0
CIRCLE
  8
011
  6
CONTINUOUS
 62
     1
 10
342.472695125
 20
173.231196133
 30
0.0
 40
1.25
  0
LINE
  8
0
  6
CONTINUOUS
 62
     1
 10
340.597684822
 20
170.5
 30
0.0
 11
344.347686026
 21
170.5
 31
0.0
  0
LINE
  8
0
  6
CONTINUOUS
 62
     1
 10
341.972695125
 20
173.731196133
 30
0.0
 11
342.972695125
 21
172.731196133
 31
0.0
  0
LINE
  8
0
  6
CONTINUOUS
 62
     1
 10
342.972695125
 20
173.731196133
 30
0.0
 11
341.972695125
 21
172.731196133
 31
0.0
  0
TEXT
  8
0
  6
CONTINUOUS
 62
     1
 10
341.772695125
 20
166.431196133
 30
-0.2
 40
1.7
  1
Ｂ
 50
0.0
 41
0.941176471
 51
0.0
  7
KANJI4
  0
LINE
  8
0
  6
CONTINUOUS
 62
     1
 10
340.597684822
 20
166.235816568
 30
0.0
 11
344.347686026
 21
166.235816568
 31
0.0
  0
LINE
  8
0
  6
CONTINUOUS
 62
     1
 10
340.597684822
 20
165.4
 30
0.0
 11
344.347686026
 21
165.4
 31
0.0
  0
CIRCLE
  8
011
  6
CONTINUOUS
 62
     1
 10
342.472695125
 20
163.231196133
 30
0.0
 40
1.25
  0
LINE
  8
0
  6
CONTINUOUS
 62
     1
 10
340.597684822
 20
160.5
 30
0.0
 11
344.347686026
 21
160.5
 31
0.0
  0
LINE
  8
0
  6
CONTINUOUS
 62
     1
 10
341.972695125
 20
163.731196133
 30
0.0
 11
342.972695125
 21
162.731196133
 31
0.0
  0
LINE
  8
0
  6
CONTINUOUS
 62
     1
 10
342.972695125
 20
163.731196133
 30
0.0
 11
341.972695125
 21
162.731196133
 31
0.0
  0
TEXT
  8
0
  6
CONTINUOUS
 62
     1
 10
341.772695125
 20
156.431196133
 30
-0.2
 40
1.7
  1
Ｂ
 50
0.0
 41
0.941176471
 51
0.0
  7
KANJI4
  0
LINE
  8
0
  6
CONTINUOUS
 62
     1
 10
345.097686026
 20
175.4
 30
0.0
 11
348.84768723
 21
175.4
 31
0.0
  0
CIRCLE
  8
011
  6
CONTINUOUS
 62
     1
 10
346.972696329
 20
173.231196133
 30
0.0
 40
1.25
  0
LINE
  8
0
  6
CONTINUOUS
 62
     1
 10
345.097686026
 20
170.5
 30
0.0
 11
348.84768723
 21
170.5
 31
0.0
  0
LINE
  8
0
  6
CONTINUOUS
 62
     1
 10
346.472696329
 20
173.731196133
 30
0.0
 11
347.472696329
 21
172.731196133
 31
0.0
  0
LINE
  8
0
  6
CONTINUOUS
 62
     1
 10
347.472696329
 20
173.731196133
 30
0.0
 11
346.472696329
 21
172.731196133
 31
0.0
  0
LINE
  8
0
  6
CONTINUOUS
 62
     1
 10
345.097686026
 20
166.235816568
 30
0.0
 11
348.84768723
 21
166.235816568
 31
0.0
  0
LINE
  8
0
  6
CONTINUOUS
 62
     1
 10
345.097686026
 20
165.4
 30
0.0
 11
348.84768723
 21
165.4
 31
0.0
  0
CIRCLE
  8
011
  6
CONTINUOUS
 62
     1
 10
346.972696329
 20
163.231196133
 30
0.0
 40
1.25
  0
LINE
  8
0
  6
CONTINUOUS
 62
     1
 10
345.097686026
 20
160.5
 30
0.0
 11
348.84768723
 21
160.5
 31
0.0
  0
LINE
  8
0
  6
CONTINUOUS
 62
     1
 10
346.472696329
 20
163.731196133
 30
0.0
 11
347.472696329
 21
162.731196133
 31
0.0
  0
LINE
  8
0
  6
CONTINUOUS
 62
     1
 10
347.472696329
 20
163.731196133
 30
0.0
 11
346.472696329
 21
162.731196133
 31
0.0
  0
LINE
  8
0
  6
CONTINUOUS
 62
     1
 10
349.59768723
 20
175.4
 30
0.0
 11
353.347688435
 21
175.4
 31
0.0
  0
CIRCLE
  8
011
  6
CONTINUOUS
 62
     1
 10
351.472697533
 20
173.231196133
 30
0.0
 40
1.25
  0
LINE
  8
0
  6
CONTINUOUS
 62
     1
 10
349.59768723
 20
170.5
 30
0.0
 11
353.347688435
 21
170.5
 31
0.0
  0
LINE
  8
0
  6
CONTINUOUS
 62
     1
 10
350.972697533
 20
173.731196133
 30
0.0
 11
351.972697533
 21
172.731196133
 31
0.0
  0
LINE
  8
0
  6
CONTINUOUS
 62
     1
 10
351.972697533
 20
173.731196133
 30
0.0
 11
350.972697533
 21
172.731196133
 31
0.0
  0
LINE
  8
0
  6
CONTINUOUS
 62
     1
 10
349.59768723
 20
166.235816568
 30
0.0
 11
353.347688435
 21
166.235816568
 31
0.0
  0
LINE
  8
0
  6
CONTINUOUS
 62
     1
 10
349.59768723
 20
165.4
 30
0.0
 11
353.347688435
 21
165.4
 31
0.0
  0
CIRCLE
  8
011
  6
CONTINUOUS
 62
     1
 10
351.472697533
 20
163.231196133
 30
0.0
 40
1.25
  0
LINE
  8
0
  6
CONTINUOUS
 62
     1
 10
349.59768723
 20
160.5
 30
0.0
 11
353.347688435
 21
160.5
 31
0.0
  0
LINE
  8
0
  6
CONTINUOUS
 62
     1
 10
350.972697533
 20
163.731196133
 30
0.0
 11
351.972697533
 21
162.731196133
 31
0.0
  0
LINE
  8
0
  6
CONTINUOUS
 62
     1
 10
351.972697533
 20
163.731196133
 30
0.0
 11
350.972697533
 21
162.731196133
 31
0.0
  0
LINE
  8
0
  6
CONTINUOUS
 62
     1
 10
354.097688435
 20
175.4
 30
0.0
 11
357.847689639
 21
175.4
 31
0.0
  0
CIRCLE
  8
011
  6
CONTINUOUS
 62
     1
 10
355.972698737
 20
173.231196133
 30
0.0
 40
1.25
  0
LINE
  8
0
  6
CONTINUOUS
 62
     1
 10
354.097688435
 20
170.5
 30
0.0
 11
357.847689639
 21
170.5
 31
0.0
  0
LINE
  8
0
  6
CONTINUOUS
 62
     1
 10
355.472698737
 20
173.731196133
 30
0.0
 11
356.472698737
 21
172.731196133
 31
0.0
  0
LINE
  8
0
  6
CONTINUOUS
 62
     1
 10
356.472698737
 20
173.731196133
 30
0.0
 11
355.472698737
 21
172.731196133
 31
0.0
  0
LINE
  8
0
  6
CONTINUOUS
 62
     1
 10
354.097688435
 20
166.235816568
 30
0.0
 11
357.847689639
 21
166.235816568
 31
0.0
  0
LINE
  8
0
  6
CONTINUOUS
 62
     1
 10
354.097688435
 20
165.4
 30
0.0
 11
357.847689639
 21
165.4
 31
0.0
  0
CIRCLE
  8
011
  6
CONTINUOUS
 62
     1
 10
355.972698737
 20
163.231196133
 30
0.0
 40
1.25
  0
LINE
  8
0
  6
CONTINUOUS
 62
     1
 10
354.097688435
 20
160.5
 30
0.0
 11
357.847689639
 21
160.5
 31
0.0
  0
LINE
  8
0
  6
CONTINUOUS
 62
     1
 10
355.472698737
 20
163.731196133
 30
0.0
 11
356.472698737
 21
162.731196133
 31
0.0
  0
LINE
  8
0
  6
CONTINUOUS
 62
     1
 10
356.472698737
 20
163.731196133
 30
0.0
 11
355.472698737
 21
162.731196133
 31
0.0
  0
LINE
  8
0
  6
CONTINUOUS
 62
     1
 10
358.597689639
 20
175.4
 30
0.0
 11
362.347690843
 21
175.4
 31
0.0
  0
CIRCLE
  8
011
  6
CONTINUOUS
 62
     1
 10
360.472699941
 20
173.231196133
 30
0.0
 40
1.25
  0
LINE
  8
0
  6
CONTINUOUS
 62
     1
 10
358.597689639
 20
170.5
 30
0.0
 11
362.347690843
 21
170.5
 31
0.0
  0
LINE
  8
0
  6
CONTINUOUS
 62
     1
 10
359.972699941
 20
173.731196133
 30
0.0
 11
360.972699941
 21
172.731196133
 31
0.0
  0
LINE
  8
0
  6
CONTINUOUS
 62
     1
 10
360.972699941
 20
173.731196133
 30
0.0
 11
359.972699941
 21
172.731196133
 31
0.0
  0
LINE
  8
0
  6
CONTINUOUS
 62
     1
 10
358.597689639
 20
166.235816568
 30
0.0
 11
362.347690843
 21
166.235816568
 31
0.0
  0
LINE
  8
0
  6
CONTINUOUS
 62
     1
 10
358.597689639
 20
165.4
 30
0.0
 11
362.347690843
 21
165.4
 31
0.0
  0
CIRCLE
  8
011
  6
CONTINUOUS
 62
     1
 10
360.472699941
 20
163.231196133
 30
0.0
 40
1.25
  0
LINE
  8
0
  6
CONTINUOUS
 62
     1
 10
358.597689639
 20
160.5
 30
0.0
 11
362.347690843
 21
160.5
 31
0.0
  0
LINE
  8
0
  6
CONTINUOUS
 62
     1
 10
359.972699941
 20
163.731196133
 30
0.0
 11
360.972699941
 21
162.731196133
 31
0.0
  0
LINE
  8
0
  6
CONTINUOUS
 62
     1
 10
360.972699941
 20
163.731196133
 30
0.0
 11
359.972699941
 21
162.731196133
 31
0.0
  0
LINE
  8
0
  6
CONTINUOUS
 62
     1
 10
363.097690843
 20
175.4
 30
0.0
 11
366.847692047
 21
175.4
 31
0.0
  0
CIRCLE
  8
011
  6
CONTINUOUS
 62
     1
 10
364.972701145
 20
173.231196133
 30
0.0
 40
1.25
  0
LINE
  8
0
  6
CONTINUOUS
 62
     1
 10
363.097690843
 20
170.5
 30
0.0
 11
366.847692047
 21
170.5
 31
0.0
  0
LINE
  8
0
  6
CONTINUOUS
 62
     1
 10
364.472701145
 20
173.731196133
 30
0.0
 11
365.472701145
 21
172.731196133
 31
0.0
  0
LINE
  8
0
  6
CONTINUOUS
 62
     1
 10
365.472701145
 20
173.731196133
 30
0.0
 11
364.472701145
 21
172.731196133
 31
0.0
  0
LINE
  8
0
  6
CONTINUOUS
 62
     1
 10
363.097690843
 20
166.235816568
 30
0.0
 11
366.847692047
 21
166.235816568
 31
0.0
  0
LINE
  8
0
  6
CONTINUOUS
 62
     1
 10
363.097690843
 20
165.4
 30
0.0
 11
366.847692047
 21
165.4
 31
0.0
  0
CIRCLE
  8
011
  6
CONTINUOUS
 62
     1
 10
364.972701145
 20
163.231196133
 30
0.0
 40
1.25
  0
LINE
  8
0
  6
CONTINUOUS
 62
     1
 10
363.097690843
 20
160.5
 30
0.0
 11
366.847692047
 21
160.5
 31
0.0
  0
LINE
  8
0
  6
CONTINUOUS
 62
     1
 10
364.472701145
 20
163.731196133
 30
0.0
 11
365.472701145
 21
162.731196133
 31
0.0
  0
LINE
  8
0
  6
CONTINUOUS
 62
     1
 10
365.472701145
 20
163.731196133
 30
0.0
 11
364.472701145
 21
162.731196133
 31
0.0
  0
LINE
  8
0
  6
CONTINUOUS
 62
     1
 10
367.597692047
 20
175.4
 30
0.0
 11
371.347693251
 21
175.4
 31
0.0
  0
CIRCLE
  8
011
  6
CONTINUOUS
 62
     1
 10
369.472702349
 20
173.231196133
 30
0.0
 40
1.25
  0
LINE
  8
0
  6
CONTINUOUS
 62
     1
 10
367.597692047
 20
170.5
 30
0.0
 11
371.347693251
 21
170.5
 31
0.0
  0
LINE
  8
0
  6
CONTINUOUS
 62
     1
 10
368.972702349
 20
173.731196133
 30
0.0
 11
369.972702349
 21
172.731196133
 31
0.0
  0
LINE
  8
0
  6
CONTINUOUS
 62
     1
 10
369.972702349
 20
173.731196133
 30
0.0
 11
368.972702349
 21
172.731196133
 31
0.0
  0
LINE
  8
0
  6
CONTINUOUS
 62
     1
 10
367.597692047
 20
166.235816568
 30
0.0
 11
371.347693251
 21
166.235816568
 31
0.0
  0
LINE
  8
0
  6
CONTINUOUS
 62
     1
 10
367.597692047
 20
165.4
 30
0.0
 11
371.347693251
 21
165.4
 31
0.0
  0
CIRCLE
  8
011
  6
CONTINUOUS
 62
     1
 10
369.472702349
 20
163.231196133
 30
0.0
 40
1.25
  0
LINE
  8
0
  6
CONTINUOUS
 62
     1
 10
367.597692047
 20
160.5
 30
0.0
 11
371.347693251
 21
160.5
 31
0.0
  0
LINE
  8
0
  6
CONTINUOUS
 62
     1
 10
368.972702349
 20
163.731196133
 30
0.0
 11
369.972702349
 21
162.731196133
 31
0.0
  0
LINE
  8
0
  6
CONTINUOUS
 62
     1
 10
369.972702349
 20
163.731196133
 30
0.0
 11
368.972702349
 21
162.731196133
 31
0.0
  0
TEXT
  8
0
  6
CONTINUOUS
 62
     1
 10
313.872687901
 20
158.431196133
 30
-0.2
 40
1.7
  1
１－
 50
0.0
 41
0.941176471
 51
0.0
  7
KANJI4
  0
TEXT
  8
0
  6
CONTINUOUS
 62
     1
 10
319.272689105
 20
156.431196133
 30
-0.2
 40
1.7
  1
Ａ
 50
0.0
 41
0.941176471
 51
0.0
  7
KANJI4
  0
TEXT
  8
0
  6
CONTINUOUS
 62
     1
 10
313.872687901
 20
168.431196133
 30
-0.2
 40
1.7
  1
４－
 50
0.0
 41
0.941176471
 51
0.0
  7
KANJI4
  0
TEXT
  8
0
  6
CONTINUOUS
 62
     1
 10
319.272689105
 20
166.431196133
 30
-0.2
 40
1.7
  1
Ａ
 50
0.0
 41
0.941176471
 51
0.0
  7
KANJI4
  0
TEXT
  8
0
  6
CONTINUOUS
 62
     1
 10
322.872690309
 20
168.431196133
 30
-0.2
 40
1.7
  1
５＋
 50
0.0
 41
0.941176471
 51
0.0
  7
KANJI4
  0
TEXT
  8
0
  6
CONTINUOUS
 62
     1
 10
327.372691513
 20
168.431196133
 30
-0.2
 40
1.7
  1
５－
 50
0.0
 41
0.941176471
 51
0.0
  7
KANJI4
  0
TEXT
  8
0
  6
CONTINUOUS
 62
     1
 10
332.772692717
 20
166.431196133
 30
-0.2
 40
1.7
  1
Ａ
 50
0.0
 41
0.941176471
 51
0.0
  7
KANJI4
  0
TEXT
  8
0
  6
CONTINUOUS
 62
     1
 10
336.372693921
 20
168.431196133
 30
-0.2
 40
1.7
  1
６＋
 50
0.0
 41
0.941176471
 51
0.0
  7
KANJI4
  0
TEXT
  8
0
  6
CONTINUOUS
 62
     1
 10
340.872695125
 20
168.431196133
 30
-0.2
 40
1.7
  1
６－
 50
0.0
 41
0.941176471
 51
0.0
  7
KANJI4
  0
TEXT
  8
0
  6
CONTINUOUS
 62
     1
 10
346.272696329
 20
166.431196133
 30
-0.2
 40
1.7
  1
Ａ
 50
0.0
 41
0.941176471
 51
0.0
  7
KANJI4
  0
TEXT
  8
0
  6
CONTINUOUS
 62
     1
 10
354.472698737
 20
166.431196133
 30
-0.2
 40
1.7
  1
ＣＯＭ
 50
0.0
 41
0.705882353
 51
0.0
  7
KANJI6
  0
TEXT
  8
0
  6
CONTINUOUS
 62
     1
 10
354.572698737
 20
168.431196133
 30
-0.2
 40
1.7
  1
ＤＩ
 50
0.0
 41
0.941176471
 51
0.0
  7
KANJI4
  0
TEXT
  8
0
  6
CONTINUOUS
 62
     1
 10
358.872699941
 20
168.431196133
 30
-0.2
 40
1.7
  1
ＤＩ
 50
0.0
 41
0.941176471
 51
0.0
  7
KANJI4
  0
TEXT
  8
0
  6
CONTINUOUS
 62
     1
 10
359.772699941
 20
166.431196133
 30
-0.2
 40
1.7
  1
３
 50
0.0
 41
0.941176471
 51
0.0
  7
KANJI4
  0
TEXT
  8
0
  6
CONTINUOUS
 62
     1
 10
363.372701145
 20
168.431196133
 30
-0.2
 40
1.7
  1
ＤＩ
 50
0.0
 41
0.941176471
 51
0.0
  7
KANJI4
  0
TEXT
  8
0
  6
CONTINUOUS
 62
     1
 10
364.272701145
 20
166.431196133
 30
-0.2
 40
1.7
  1
２
 50
0.0
 41
0.941176471
 51
0.0
  7
KANJI4
  0
TEXT
  8
0
  6
CONTINUOUS
 62
     1
 10
367.872702349
 20
168.431196133
 30
-0.2
 40
1.7
  1
ＤＩ
 50
0.0
 41
0.941176471
 51
0.0
  7
KANJI4
  0
TEXT
  8
0
  6
CONTINUOUS
 62
     1
 10
368.772702349
 20
166.431196133
 30
-0.2
 40
1.7
  1
１
 50
0.0
 41
0.941176471
 51
0.0
  7
KANJI4
  0
TEXT
  8
0
  6
CONTINUOUS
 62
     1
 10
358.872699941
 20
158.431196133
 30
-0.2
 40
1.7
  1
ＴＤ
 50
0.0
 41
0.941176471
 51
0.0
  7
KANJI4
  0
TEXT
  8
0
  6
CONTINUOUS
 62
     1
 10
363.372701145
 20
158.431196133
 30
-0.2
 40
1.7
  1
ＲＤ
 50
0.0
 41
0.941176471
 51
0.0
  7
KANJI4
  0
TEXT
  8
0
  6
CONTINUOUS
 62
     1
 10
367.872702349
 20
158.431196133
 30
-0.2
 40
1.7
  1
ＳＧ
 50
0.0
 41
0.941176471
 51
0.0
  7
KANJI4
  0
LINE
  8
0
  6
CONTINUOUS
 62
     1
 10
367.597677598
 20
158.035816568
 30
0.0
 11
367.597677598
 21
176.235816568
 31
0.0
  0
LINE
  8
0
  6
CONTINUOUS
 62
     1
 10
366.847677598
 20
158.035816568
 30
0.0
 11
366.847677598
 21
176.235816568
 31
0.0
  0
LINE
  8
0
  6
CONTINUOUS
 62
     1
 10
363.097677598
 20
158.035816568
 30
0.0
 11
363.097677598
 21
176.235816568
 31
0.0
  0
LINE
  8
0
  6
CONTINUOUS
 62
     1
 10
362.347677598
 20
158.035816568
 30
0.0
 11
362.347677598
 21
176.235816568
 31
0.0
  0
TEXT
  8
0
  6
CONTINUOUS
 62
     1
 10
360.072699941
 20
156.131196133
 30
-0.2
 40
1.7
  1
ＲＳ－２３２Ｃ
 50
0.0
 41
0.941176471
 51
0.0
  7
KANJI4
  0
TEXT
  8
0
  6
CONTINUOUS
 62
     1
 10
322.872690309
 20
158.431196133
 30
-0.2
 40
1.7
  1
２＋
 50
0.0
 41
0.941176471
 51
0.0
  7
KANJI4
  0
TEXT
  8
0
  6
CONTINUOUS
 62
     1
 10
327.372691513
 20
158.431196133
 30
-0.2
 40
1.7
  1
２－
 50
0.0
 41
0.941176471
 51
0.0
  7
KANJI4
  0
TEXT
  8
0
  6
CONTINUOUS
 62
     1
 10
332.772692717
 20
156.431196133
 30
-0.2
 40
1.7
  1
Ａ
 50
0.0
 41
0.941176471
 51
0.0
  7
KANJI4
  0
TEXT
  8
0
  6
CONTINUOUS
 62
     1
 10
336.372693921
 20
158.431196133
 30
-0.2
 40
1.7
  1
３＋
 50
0.0
 41
0.941176471
 51
0.0
  7
KANJI4
  0
TEXT
  8
0
  6
CONTINUOUS
 62
     1
 10
340.872695125
 20
158.431196133
 30
-0.2
 40
1.7
  1
３－
 50
0.0
 41
0.941176471
 51
0.0
  7
KANJI4
  0
TEXT
  8
0
  6
CONTINUOUS
 62
     1
 10
346.272696329
 20
156.431196133
 30
-0.2
 40
1.7
  1
Ａ
 50
0.0
 41
0.941176471
 51
0.0
  7
KANJI4
  0
TEXT
  8
0
  6
CONTINUOUS
 62
     1
 10
319.172689105
 20
168.431196133
 30
-0.2
 40
1.7
  1
４
 50
0.0
 41
0.941176471
 51
0.0
  7
KANJI4
  0
TEXT
  8
0
  6
CONTINUOUS
 62
     1
 10
332.672692717
 20
168.431196133
 30
-0.2
 40
1.7
  1
５
 50
0.0
 41
0.941176471
 51
0.0
  7
KANJI4
  0
TEXT
  8
0
  6
CONTINUOUS
 62
     1
 10
346.272696329
 20
168.431196133
 30
-0.2
 40
1.7
  1
６
 50
0.0
 41
0.941176471
 51
0.0
  7
KANJI4
  0
TEXT
  8
0
  6
CONTINUOUS
 62
     1
 10
346.172696329
 20
158.431196133
 30
-0.2
 40
1.7
  1
３
 50
0.0
 41
0.941176471
 51
0.0
  7
KANJI4
  0
TEXT
  8
0
  6
CONTINUOUS
 62
     1
 10
332.772692717
 20
158.431196133
 30
-0.2
 40
1.7
  1
２
 50
0.0
 41
0.941176471
 51
0.0
  7
KANJI4
  0
TEXT
  8
0
  6
CONTINUOUS
 62
     1
 10
318.572689105
 20
158.331196133
 30
-0.2
 40
1.7
  1
　１
 50
0.0
 41
0.941176471
 51
0.0
  7
KANJI4
  0
LINE
  8
0
  6
CONTINUOUS
 62
     1
 10
309.097676394
 20
192.23576529
 30
0.0
 11
312.847677598
 21
192.23576529
 31
0.0
  0
LINE
  8
0
  6
CONTINUOUS
 62
     1
 10
309.097676394
 20
191.399948722
 30
0.0
 11
312.847677598
 21
191.399948722
 31
0.0
  0
CIRCLE
  8
011
  6
CONTINUOUS
 62
     1
 10
310.972686697
 20
189.231144855
 30
0.0
 40
1.25
  0
LINE
  8
0
  6
CONTINUOUS
 62
     1
 10
309.097676394
 20
186.499948722
 30
0.0
 11
312.847677598
 21
186.499948722
 31
0.0
  0
LINE
  8
0
  6
CONTINUOUS
 62
     1
 10
310.472686697
 20
189.731144855
 30
0.0
 11
311.472686697
 21
188.731144855
 31
0.0
  0
LINE
  8
0
  6
CONTINUOUS
 62
     1
 10
311.472686697
 20
189.731144855
 30
0.0
 11
310.472686697
 21
188.731144855
 31
0.0
  0
TEXT
  8
0
  6
CONTINUOUS
 62
     1
 10
309.372686697
 20
184.431144855
 30
-0.2
 40
1.7
  1
１Ａ
 50
0.0
 41
0.941176471
 51
0.0
  7
KANJI4
  0
LINE
  8
0
  6
CONTINUOUS
 62
     1
 10
313.597677598
 20
192.23576529
 30
0.0
 11
317.347678802
 21
192.23576529
 31
0.0
  0
LINE
  8
0
  6
CONTINUOUS
 62
     1
 10
313.597677598
 20
191.399948722
 30
0.0
 11
317.347678802
 21
191.399948722
 31
0.0
  0
CIRCLE
  8
011
  6
CONTINUOUS
 62
     1
 10
315.472687901
 20
189.231144855
 30
0.0
 40
1.25
  0
LINE
  8
0
  6
CONTINUOUS
 62
     1
 10
313.597677598
 20
186.499948722
 30
0.0
 11
317.347678802
 21
186.499948722
 31
0.0
  0
LINE
  8
0
  6
CONTINUOUS
 62
     1
 10
314.972687901
 20
189.731144855
 30
0.0
 11
315.972687901
 21
188.731144855
 31
0.0
  0
LINE
  8
0
  6
CONTINUOUS
 62
     1
 10
315.972687901
 20
189.731144855
 30
0.0
 11
314.972687901
 21
188.731144855
 31
0.0
  0
LINE
  8
0
  6
CONTINUOUS
 62
     1
 10
318.097678802
 20
192.23576529
 30
0.0
 11
321.847680006
 21
192.23576529
 31
0.0
  0
LINE
  8
0
  6
CONTINUOUS
 62
     1
 10
318.097678802
 20
191.399948722
 30
0.0
 11
321.847680006
 21
191.399948722
 31
0.0
  0
CIRCLE
  8
011
  6
CONTINUOUS
 62
     1
 10
319.972689105
 20
189.231144855
 30
0.0
 40
1.25
  0
LINE
  8
0
  6
CONTINUOUS
 62
     1
 10
318.097678802
 20
186.499948722
 30
0.0
 11
321.847680006
 21
186.499948722
 31
0.0
  0
LINE
  8
0
  6
CONTINUOUS
 62
     1
 10
319.472689105
 20
189.731144855
 30
0.0
 11
320.472689105
 21
188.731144855
 31
0.0
  0
LINE
  8
0
  6
CONTINUOUS
 62
     1
 10
320.472689105
 20
189.731144855
 30
0.0
 11
319.472689105
 21
188.731144855
 31
0.0
  0
LINE
  8
0
  6
CONTINUOUS
 62
     1
 10
322.597680006
 20
192.23576529
 30
0.0
 11
326.34768121
 21
192.23576529
 31
0.0
  0
LINE
  8
0
  6
CONTINUOUS
 62
     1
 10
322.597680006
 20
191.399948722
 30
0.0
 11
326.34768121
 21
191.399948722
 31
0.0
  0
CIRCLE
  8
011
  6
CONTINUOUS
 62
     1
 10
324.472690309
 20
189.231144855
 30
0.0
 40
1.25
  0
LINE
  8
0
  6
CONTINUOUS
 62
     1
 10
322.597680006
 20
186.499948722
 30
0.0
 11
326.34768121
 21
186.499948722
 31
0.0
  0
LINE
  8
0
  6
CONTINUOUS
 62
     1
 10
323.972690309
 20
189.731144855
 30
0.0
 11
324.972690309
 21
188.731144855
 31
0.0
  0
LINE
  8
0
  6
CONTINUOUS
 62
     1
 10
324.972690309
 20
189.731144855
 30
0.0
 11
323.972690309
 21
188.731144855
 31
0.0
  0
LINE
  8
0
  6
CONTINUOUS
 62
     1
 10
327.09768121
 20
192.23576529
 30
0.0
 11
330.847682414
 21
192.23576529
 31
0.0
  0
LINE
  8
0
  6
CONTINUOUS
 62
     1
 10
327.09768121
 20
191.399948722
 30
0.0
 11
330.847682414
 21
191.399948722
 31
0.0
  0
CIRCLE
  8
011
  6
CONTINUOUS
 62
     1
 10
328.972691513
 20
189.231144855
 30
0.0
 40
1.25
  0
LINE
  8
0
  6
CONTINUOUS
 62
     1
 10
327.09768121
 20
186.499948722
 30
0.0
 11
330.847682414
 21
186.499948722
 31
0.0
  0
LINE
  8
0
  6
CONTINUOUS
 62
     1
 10
328.472691513
 20
189.731144855
 30
0.0
 11
329.472691513
 21
188.731144855
 31
0.0
  0
LINE
  8
0
  6
CONTINUOUS
 62
     1
 10
329.472691513
 20
189.731144855
 30
0.0
 11
328.472691513
 21
188.731144855
 31
0.0
  0
LINE
  8
0
  6
CONTINUOUS
 62
     1
 10
331.597682414
 20
192.23576529
 30
0.0
 11
335.347683618
 21
192.23576529
 31
0.0
  0
LINE
  8
0
  6
CONTINUOUS
 62
     1
 10
331.597682414
 20
191.399948722
 30
0.0
 11
335.347683618
 21
191.399948722
 31
0.0
  0
CIRCLE
  8
011
  6
CONTINUOUS
 62
     1
 10
333.472692717
 20
189.231144855
 30
0.0
 40
1.25
  0
LINE
  8
0
  6
CONTINUOUS
 62
     1
 10
331.597682414
 20
186.499948722
 30
0.0
 11
335.347683618
 21
186.499948722
 31
0.0
  0
LINE
  8
0
  6
CONTINUOUS
 62
     1
 10
332.972692717
 20
189.731144855
 30
0.0
 11
333.972692717
 21
188.731144855
 31
0.0
  0
LINE
  8
0
  6
CONTINUOUS
 62
     1
 10
333.972692717
 20
189.731144855
 30
0.0
 11
332.972692717
 21
188.731144855
 31
0.0
  0
LINE
  8
0
  6
CONTINUOUS
 62
     1
 10
336.097683618
 20
192.23576529
 30
0.0
 11
339.847684822
 21
192.23576529
 31
0.0
  0
LINE
  8
0
  6
CONTINUOUS
 62
     1
 10
336.097683618
 20
191.399948722
 30
0.0
 11
339.847684822
 21
191.399948722
 31
0.0
  0
CIRCLE
  8
011
  6
CONTINUOUS
 62
     1
 10
337.972693921
 20
189.231144855
 30
0.0
 40
1.25
  0
LINE
  8
0
  6
CONTINUOUS
 62
     1
 10
336.097683618
 20
186.499948722
 30
0.0
 11
339.847684822
 21
186.499948722
 31
0.0
  0
LINE
  8
0
  6
CONTINUOUS
 62
     1
 10
337.472693921
 20
189.731144855
 30
0.0
 11
338.472693921
 21
188.731144855
 31
0.0
  0
LINE
  8
0
  6
CONTINUOUS
 62
     1
 10
338.472693921
 20
189.731144855
 30
0.0
 11
337.472693921
 21
188.731144855
 31
0.0
  0
LINE
  8
0
  6
CONTINUOUS
 62
     1
 10
340.597684822
 20
192.23576529
 30
0.0
 11
344.347686026
 21
192.23576529
 31
0.0
  0
LINE
  8
0
  6
CONTINUOUS
 62
     1
 10
340.597684822
 20
191.399948722
 30
0.0
 11
344.347686026
 21
191.399948722
 31
0.0
  0
CIRCLE
  8
011
  6
CONTINUOUS
 62
     1
 10
342.472695125
 20
189.231144855
 30
0.0
 40
1.25
  0
LINE
  8
0
  6
CONTINUOUS
 62
     1
 10
340.597684822
 20
186.499948722
 30
0.0
 11
344.347686026
 21
186.499948722
 31
0.0
  0
LINE
  8
0
  6
CONTINUOUS
 62
     1
 10
341.972695125
 20
189.731144855
 30
0.0
 11
342.972695125
 21
188.731144855
 31
0.0
  0
LINE
  8
0
  6
CONTINUOUS
 62
     1
 10
342.972695125
 20
189.731144855
 30
0.0
 11
341.972695125
 21
188.731144855
 31
0.0
  0
LINE
  8
0
  6
CONTINUOUS
 62
     1
 10
345.097686026
 20
192.23576529
 30
0.0
 11
348.84768723
 21
192.23576529
 31
0.0
  0
LINE
  8
0
  6
CONTINUOUS
 62
     1
 10
345.097686026
 20
191.399948722
 30
0.0
 11
348.84768723
 21
191.399948722
 31
0.0
  0
CIRCLE
  8
011
  6
CONTINUOUS
 62
     1
 10
346.972696329
 20
189.231144855
 30
0.0
 40
1.25
  0
LINE
  8
0
  6
CONTINUOUS
 62
     1
 10
345.097686026
 20
186.499948722
 30
0.0
 11
348.84768723
 21
186.499948722
 31
0.0
  0
LINE
  8
0
  6
CONTINUOUS
 62
     1
 10
346.472696329
 20
189.731144855
 30
0.0
 11
347.472696329
 21
188.731144855
 31
0.0
  0
LINE
  8
0
  6
CONTINUOUS
 62
     1
 10
347.472696329
 20
189.731144855
 30
0.0
 11
346.472696329
 21
188.731144855
 31
0.0
  0
LINE
  8
0
  6
CONTINUOUS
 62
     1
 10
349.59768723
 20
192.23576529
 30
0.0
 11
353.347688435
 21
192.23576529
 31
0.0
  0
LINE
  8
0
  6
CONTINUOUS
 62
     1
 10
349.59768723
 20
191.399948722
 30
0.0
 11
353.347688435
 21
191.399948722
 31
0.0
  0
CIRCLE
  8
011
  6
CONTINUOUS
 62
     1
 10
351.472697533
 20
189.231144855
 30
0.0
 40
1.25
  0
LINE
  8
0
  6
CONTINUOUS
 62
     1
 10
349.59768723
 20
186.499948722
 30
0.0
 11
353.347688435
 21
186.499948722
 31
0.0
  0
LINE
  8
0
  6
CONTINUOUS
 62
     1
 10
350.972697533
 20
189.731144855
 30
0.0
 11
351.972697533
 21
188.731144855
 31
0.0
  0
LINE
  8
0
  6
CONTINUOUS
 62
     1
 10
351.972697533
 20
189.731144855
 30
0.0
 11
350.972697533
 21
188.731144855
 31
0.0
  0
LINE
  8
0
  6
CONTINUOUS
 62
     1
 10
354.097688435
 20
192.23576529
 30
0.0
 11
357.847689639
 21
192.23576529
 31
0.0
  0
LINE
  8
0
  6
CONTINUOUS
 62
     1
 10
354.097688435
 20
191.399948722
 30
0.0
 11
357.847689639
 21
191.399948722
 31
0.0
  0
CIRCLE
  8
011
  6
CONTINUOUS
 62
     1
 10
355.972698737
 20
189.231144855
 30
0.0
 40
1.25
  0
LINE
  8
0
  6
CONTINUOUS
 62
     1
 10
354.097688435
 20
186.499948722
 30
0.0
 11
357.847689639
 21
186.499948722
 31
0.0
  0
LINE
  8
0
  6
CONTINUOUS
 62
     1
 10
355.472698737
 20
189.731144855
 30
0.0
 11
356.472698737
 21
188.731144855
 31
0.0
  0
LINE
  8
0
  6
CONTINUOUS
 62
     1
 10
356.472698737
 20
189.731144855
 30
0.0
 11
355.472698737
 21
188.731144855
 31
0.0
  0
LINE
  8
0
  6
CONTINUOUS
 62
     1
 10
358.597689639
 20
192.23576529
 30
0.0
 11
362.347690843
 21
192.23576529
 31
0.0
  0
LINE
  8
0
  6
CONTINUOUS
 62
     1
 10
358.597689639
 20
191.399948722
 30
0.0
 11
362.347690843
 21
191.399948722
 31
0.0
  0
CIRCLE
  8
011
  6
CONTINUOUS
 62
     1
 10
360.472699941
 20
189.231144855
 30
0.0
 40
1.25
  0
LINE
  8
0
  6
CONTINUOUS
 62
     1
 10
358.597689639
 20
186.499948722
 30
0.0
 11
362.347690843
 21
186.499948722
 31
0.0
  0
LINE
  8
0
  6
CONTINUOUS
 62
     1
 10
359.972699941
 20
189.731144855
 30
0.0
 11
360.972699941
 21
188.731144855
 31
0.0
  0
LINE
  8
0
  6
CONTINUOUS
 62
     1
 10
360.972699941
 20
189.731144855
 30
0.0
 11
359.972699941
 21
188.731144855
 31
0.0
  0
LINE
  8
0
  6
CONTINUOUS
 62
     1
 10
363.097690843
 20
192.23576529
 30
0.0
 11
366.847692047
 21
192.23576529
 31
0.0
  0
LINE
  8
0
  6
CONTINUOUS
 62
     1
 10
363.097690843
 20
191.399948722
 30
0.0
 11
366.847692047
 21
191.399948722
 31
0.0
  0
CIRCLE
  8
011
  6
CONTINUOUS
 62
     1
 10
364.972701145
 20
189.231144855
 30
0.0
 40
1.25
  0
LINE
  8
0
  6
CONTINUOUS
 62
     1
 10
363.097690843
 20
186.499948722
 30
0.0
 11
366.847692047
 21
186.499948722
 31
0.0
  0
LINE
  8
0
  6
CONTINUOUS
 62
     1
 10
364.472701145
 20
189.731144855
 30
0.0
 11
365.472701145
 21
188.731144855
 31
0.0
  0
LINE
  8
0
  6
CONTINUOUS
 62
     1
 10
365.472701145
 20
189.731144855
 30
0.0
 11
364.472701145
 21
188.731144855
 31
0.0
  0
LINE
  8
0
  6
CONTINUOUS
 62
     1
 10
367.597692047
 20
192.23576529
 30
0.0
 11
371.347693251
 21
192.23576529
 31
0.0
  0
LINE
  8
0
  6
CONTINUOUS
 62
     1
 10
367.597692047
 20
191.399948722
 30
0.0
 11
371.347693251
 21
191.399948722
 31
0.0
  0
CIRCLE
  8
011
  6
CONTINUOUS
 62
     1
 10
369.472702349
 20
189.231144855
 30
0.0
 40
1.25
  0
LINE
  8
0
  6
CONTINUOUS
 62
     1
 10
367.597692047
 20
186.499948722
 30
0.0
 11
371.347693251
 21
186.499948722
 31
0.0
  0
LINE
  8
0
  6
CONTINUOUS
 62
     1
 10
368.972702349
 20
189.731144855
 30
0.0
 11
369.972702349
 21
188.731144855
 31
0.0
  0
LINE
  8
0
  6
CONTINUOUS
 62
     1
 10
369.972702349
 20
189.731144855
 30
0.0
 11
368.972702349
 21
188.731144855
 31
0.0
  0
TEXT
  8
0
  6
CONTINUOUS
 62
     1
 10
313.872687901
 20
184.431144855
 30
-0.2
 40
1.7
  1
１Ｃ
 50
0.0
 41
0.941176471
 51
0.0
  7
KANJI4
  0
TEXT
  8
0
  6
CONTINUOUS
 62
     1
 10
318.372689105
 20
184.431144855
 30
-0.2
 40
1.7
  1
２Ａ
 50
0.0
 41
0.941176471
 51
0.0
  7
KANJI4
  0
TEXT
  8
0
  6
CONTINUOUS
 62
     1
 10
322.872690309
 20
184.431144855
 30
-0.2
 40
1.7
  1
２Ｃ
 50
0.0
 41
0.941176471
 51
0.0
  7
KANJI4
  0
TEXT
  8
0
  6
CONTINUOUS
 62
     1
 10
327.372691513
 20
184.431144855
 30
-0.2
 40
1.7
  1
３Ａ
 50
0.0
 41
0.941176471
 51
0.0
  7
KANJI4
  0
TEXT
  8
0
  6
CONTINUOUS
 62
     1
 10
331.872692717
 20
184.431144855
 30
-0.2
 40
1.7
  1
３Ｃ
 50
0.0
 41
0.941176471
 51
0.0
  7
KANJI4
  0
TEXT
  8
0
  6
CONTINUOUS
 62
     1
 10
336.372693921
 20
184.431144855
 30
-0.2
 40
1.7
  1
４Ａ
 50
0.0
 41
0.941176471
 51
0.0
  7
KANJI4
  0
TEXT
  8
0
  6
CONTINUOUS
 62
     1
 10
340.872695125
 20
184.431144855
 30
-0.2
 40
1.7
  1
４Ｃ
 50
0.0
 41
0.941176471
 51
0.0
  7
KANJI4
  0
TEXT
  8
0
  6
CONTINUOUS
 62
     1
 10
345.372696329
 20
184.431144855
 30
-0.2
 40
1.7
  1
５Ａ
 50
0.0
 41
0.941176471
 51
0.0
  7
KANJI4
  0
TEXT
  8
0
  6
CONTINUOUS
 62
     1
 10
349.872697533
 20
184.431144855
 30
-0.2
 40
1.7
  1
５Ｃ
 50
0.0
 41
0.941176471
 51
0.0
  7
KANJI4
  0
TEXT
  8
0
  6
CONTINUOUS
 62
     1
 10
354.372698737
 20
184.431144855
 30
-0.2
 40
1.7
  1
６Ａ
 50
0.0
 41
0.941176471
 51
0.0
  7
KANJI4
  0
TEXT
  8
0
  6
CONTINUOUS
 62
     1
 10
358.872699941
 20
184.431144855
 30
-0.2
 40
1.7
  1
６Ｃ
 50
0.0
 41
0.941176471
 51
0.0
  7
KANJI4
  0
TEXT
  8
0
  6
CONTINUOUS
 62
     1
 10
364.172701145
 20
184.531144855
 30
-0.2
 40
1.7
  1
＋
 50
0.0
 41
0.941176471
 51
0.0
  7
KANJI4
  0
TEXT
  8
0
  6
CONTINUOUS
 62
     1
 10
368.672702349
 20
184.531144855
 30
-0.2
 40
1.7
  1
－
 50
0.0
 41
0.941176471
 51
0.0
  7
KANJI4
  0
TEXT
  8
0
  6
CONTINUOUS
 62
     1
 10
363.197677598
 20
179.615803725
 30
-0.2
 40
1.7
  1
ＲＳ－４８５
 50
0.0
 41
0.941176471
 51
0.0
  7
KANJI4
  0
LINE
  8
0
  6
CONTINUOUS
 62
     1
 10
354.097688435
 20
202.399948722
 30
0.0
 11
357.847689639
 21
202.399948722
 31
0.0
  0
CIRCLE
  8
011
  6
CONTINUOUS
 62
     1
 10
355.972698737
 20
200.231144855
 30
0.0
 40
1.25
  0
LINE
  8
0
  6
CONTINUOUS
 62
     1
 10
354.097688435
 20
197.499948722
 30
0.0
 11
357.847689639
 21
197.499948722
 31
0.0
  0
LINE
  8
0
  6
CONTINUOUS
 62
     1
 10
355.472698737
 20
200.731144855
 30
0.0
 11
356.472698737
 21
199.731144855
 31
0.0
  0
LINE
  8
0
  6
CONTINUOUS
 62
     1
 10
356.472698737
 20
200.731144855
 30
0.0
 11
355.472698737
 21
199.731144855
 31
0.0
  0
TEXT
  8
0
  6
CONTINUOUS
 62
     1
 10
333.272699941
 20
177.631144855
 30
-0.2
 40
1.7
  1
ＲＥＬＡＹ　ＯＵＴ
 50
0.0
 41
0.941176471
 51
0.0
  7
KANJI4
  0
LINE
  8
0
  6
CONTINUOUS
 62
     1
 10
114.905199941
 20
159.668644855
 30
0.0
 11
116.678949941
 21
159.668644855
 31
0.0
  0
LINE
  8
0
  6
CONTINUOUS
 62
     1
 10
120.102699941
 20
159.627394855
 30
0.0
 11
120.597699941
 21
159.627394855
 31
0.0
  0
LINE
  8
0
  6
CONTINUOUS
 62
     1
 10
119.153949941
 20
159.627394855
 30
0.0
 11
118.370199941
 21
159.627394855
 31
0.0
  0
LINE
  8
0
  6
CONTINUOUS
 62
     1
 10
125.093949941
 20
159.627394855
 30
0.0
 11
124.310199941
 21
159.627394855
 31
0.0
  0
LINE
  8
0
  6
CONTINUOUS
 62
     1
 10
119.607699941
 20
159.132394855
 30
0.0
 11
119.648949941
 21
159.173644855
 31
0.0
  0
LINE
  8
0
  6
CONTINUOUS
 62
     1
 10
114.905199941
 20
159.668644855
 30
0.0
 11
116.678949941
 21
159.668644855
 31
0.0
  0
ARC
  8
0
  6
CONTINUOUS
 62
     1
 10
116.678949941
 20
159.173644855
 30
0.0
 40
0.495
 50
0.0
 51
90.0
  0
LINE
  8
0
  6
CONTINUOUS
 62
     1
 10
117.132699941
 20
159.173644855
 30
0.0
 11
116.307699941
 21
159.173644855
 31
0.0
  0
LINE
  8
0
  6
CONTINUOUS
 62
     1
 10
116.307699941
 20
159.173644855
 30
0.0
 11
116.307699941
 21
157.152394855
 31
0.0
  0
LINE
  8
0
  6
CONTINUOUS
 62
     1
 10
116.307699941
 20
157.152394855
 30
0.0
 11
115.812699941
 21
157.152394855
 31
0.0
  0
LINE
  8
0
  6
CONTINUOUS
 62
     1
 10
115.812699941
 20
157.152394855
 30
0.0
 11
115.812699941
 21
159.173644855
 31
0.0
  0
LINE
  8
0
  6
CONTINUOUS
 62
     1
 10
115.812699941
 20
159.173644855
 30
0.0
 11
114.905199941
 21
159.173644855
 31
0.0
  0
LINE
  8
0
  6
CONTINUOUS
 62
     1
 10
114.905199941
 20
159.173644855
 30
0.0
 11
114.905199941
 21
159.668644855
 31
0.0
  0
ARC
  8
0
  6
CONTINUOUS
 62
     1
 10
119.153949941
 20
159.132394855
 30
0.0
 40
0.495
 50
0.0
 51
90.0
  0
LINE
  8
0
  6
CONTINUOUS
 62
     1
 10
119.648949941
 20
159.132394855
 30
0.0
 11
118.411449941
 21
159.132394855
 31
0.0
  0
ARC
  8
0
  6
CONTINUOUS
 62
     1
 10
118.411449941
 20
158.389894855
 30
0.0
 40
0.7425
 50
93.2
 51
227.3
  0
ARC
  8
0
  6
CONTINUOUS
 62
     1
 10
118.411449941
 20
158.389894855
 30
0.0
 40
0.7425
 50
227.3
 51
35.537677792
  0
LINE
  8
0
  6
CONTINUOUS
 62
     1
 10
118.988949941
 20
158.802394855
 30
0.0
 11
119.566449941
 21
158.802394855
 31
0.0
  0
LINE
  8
0
  6
CONTINUOUS
 62
     1
 10
120.102699941
 20
157.152394855
 30
0.0
 11
120.102699941
 21
159.627394855
 31
0.0
  0
LINE
  8
0
  6
CONTINUOUS
 62
     1
 10
120.102699941
 20
159.627394855
 30
0.0
 11
120.597699941
 21
159.627394855
 31
0.0
  0
LINE
  8
0
  6
CONTINUOUS
 62
     1
 10
120.597699941
 20
159.627394855
 30
0.0
 11
120.597699941
 21
158.637394855
 31
0.0
  0
LINE
  8
0
  6
CONTINUOUS
 62
     1
 10
120.597699941
 20
158.637394855
 30
0.0
 11
122.082699941
 21
158.637394855
 31
0.0
  0
LINE
  8
0
  6
CONTINUOUS
 62
     1
 10
122.082699941
 20
158.637394855
 30
0.0
 11
122.082699941
 21
159.627394855
 31
0.0
  0
ARC
  8
0
  6
CONTINUOUS
 62
     1
 10
122.082699941
 20
159.132394855
 30
0.0
 40
0.495
 50
0.0
 51
90.0
  0
LINE
  8
0
  6
CONTINUOUS
 62
     1
 10
122.577699941
 20
159.132394855
 30
0.0
 11
122.577699941
 21
157.152394855
 31
0.0
  0
LINE
  8
0
  6
CONTINUOUS
 62
     1
 10
122.577699941
 20
157.152394855
 30
0.0
 11
122.082699941
 21
157.152394855
 31
0.0
  0
LINE
  8
0
  6
CONTINUOUS
 62
     1
 10
122.082699941
 20
157.152394855
 30
0.0
 11
122.082699941
 21
158.142394855
 31
0.0
  0
LINE
  8
0
  6
CONTINUOUS
 62
     1
 10
122.082699941
 20
158.142394855
 30
0.0
 11
120.597699941
 21
158.142394855
 31
0.0
  0
LINE
  8
0
  6
CONTINUOUS
 62
     1
 10
120.597699941
 20
158.142394855
 30
0.0
 11
120.597699941
 21
157.152394855
 31
0.0
  0
LINE
  8
0
  6
CONTINUOUS
 62
     1
 10
120.597699941
 20
157.152394855
 30
0.0
 11
120.102699941
 21
157.152394855
 31
0.0
  0
ARC
  8
0
  6
CONTINUOUS
 62
     1
 10
125.093949941
 20
159.132394855
 30
0.0
 40
0.495
 50
0.0
 51
90.0
  0
LINE
  8
0
  6
CONTINUOUS
 62
     1
 10
125.547699941
 20
159.132394855
 30
0.0
 11
124.351449941
 21
159.132394855
 31
0.0
  0
ARC
  8
0
  6
CONTINUOUS
 62
     1
 10
124.351449941
 20
158.389894855
 30
0.0
 40
0.7425
 50
93.2
 51
227.3
  0
ARC
  8
0
  6
CONTINUOUS
 62
     1
 10
124.351449941
 20
158.389894855
 30
0.0
 40
0.7425
 50
227.3
 51
35.537677792
  0
LINE
  8
0
  6
CONTINUOUS
 62
     1
 10
124.928949941
 20
158.802394855
 30
0.0
 11
125.506449941
 21
158.802394855
 31
0.0
  0
LINE
  8
0
  6
CONTINUOUS
 62
     1
 10
119.153949941
 20
159.627394855
 30
0.0
 11
118.370199941
 21
159.627394855
 31
0.0
  0
ARC
  8
0
  6
CONTINUOUS
 62
     1
 10
118.411449941
 20
158.389894855
 30
0.0
 40
1.2375
 50
91.9
 51
205.7
  0
ARC
  8
0
  6
CONTINUOUS
 62
     1
 10
118.411449941
 20
158.389894855
 30
0.0
 40
1.2375
 50
205.7
 51
19.653824058
  0
LINE
  8
0
  6
CONTINUOUS
 62
     1
 10
125.093949941
 20
159.627394855
 30
0.0
 11
124.310199941
 21
159.627394855
 31
0.0
  0
ARC
  8
0
  6
CONTINUOUS
 62
     1
 10
124.351449941
 20
158.389894855
 30
0.0
 40
1.2375
 50
91.9
 51
205.7
  0
ARC
  8
0
  6
CONTINUOUS
 62
     1
 10
124.351449941
 20
158.389894855
 30
0.0
 40
1.2375
 50
205.7
 51
19.653824058
  0
TEXT
  8
0
  6
CONTINUOUS
 62
     2
 10
193.244238137
 20
57.482438262
 30
0.0
 40
5.0
  1
パネルは板厚１．２ｍｍ以上の鋼板を使用してください。
 50
0.0
 41
1.0
 51
0.0
  7
KANJI5
  0
TEXT
  8
0
  6
CONTINUOUS
 62
     1
 10
291.597686697
 20
118.438593328
 30
0.0
 40
1.75
  1
Ｎ
 50
0.0
 41
1.0
 51
0.0
  7
KANJI2
  0
TEXT
  8
0
  6
CONTINUOUS
 62
     1
 10
287.097686697
 20
118.438593328
 30
0.0
 40
1.75
  1
Ｌ
 50
0.0
 41
1.0
 51
0.0
  7
KANJI2
  0
CIRCLE
  8
0
  6
CONTINUOUS
 62
     1
 10
287.772699941
 20
115.931144855
 30
0.0
 40
1.0
  0
CIRCLE
  8
0
  6
CONTINUOUS
 62
     1
 10
287.772699941
 20
115.931144855
 30
0.0
 40
1.25
  0
CIRCLE
  8
0
  6
CONTINUOUS
 62
     1
 10
292.472699941
 20
115.931144855
 30
0.0
 40
1.0
  0
CIRCLE
  8
0
  6
CONTINUOUS
 62
     1
 10
292.472699941
 20
115.931144855
 30
0.0
 40
1.25
  0
CIRCLE
  8
0
  6
CONTINUOUS
 62
     1
 10
297.172699941
 20
115.931144855
 30
0.0
 40
1.0
  0
CIRCLE
  8
0
  6
CONTINUOUS
 62
     1
 10
297.172699941
 20
115.931144855
 30
0.0
 40
1.25
  0
CIRCLE
  8
0
  6
CONTINUOUS
 62
     1
 10
297.172699941
 20
119.663593328
 30
0.0
 40
1.125
  0
LINE
  8
0
  6
CONTINUOUS
 62
     1
 10
296.422699941
 20
119.438593328
 30
0.0
 11
297.922699941
 21
119.438593328
 31
0.0
  0
LINE
  8
0
  6
CONTINUOUS
 62
     1
 10
297.172699941
 20
119.438593328
 30
0.0
 11
297.172699941
 21
120.488593328
 31
0.0
  0
LINE
  8
0
  6
CONTINUOUS
 62
     1
 10
296.572699941
 20
119.138593328
 30
0.0
 11
297.772699941
 21
119.138593328
 31
0.0
  0
LINE
  8
0
  6
CONTINUOUS
 62
     1
 10
296.797699941
 20
118.838593328
 30
0.0
 11
297.547699941
 21
118.838593328
 31
0.0
  0
LINE
  8
0
  6
CONTINUOUS
 62
     1
 10
286.522699941
 20
115.931144855
 30
0.0
 11
284.422699941
 21
115.931144855
 31
0.0
  0
LINE
  8
0
  6
CONTINUOUS
 62
     1
 10
289.022699941
 20
115.931144855
 30
0.0
 11
291.222699941
 21
115.931144855
 31
0.0
  0
LINE
  8
0
  6
CONTINUOUS
 62
     1
 10
298.422699941
 20
115.931144855
 30
0.0
 11
300.722699941
 21
115.931144855
 31
0.0
  0
LINE
  8
0
  6
CONTINUOUS
 62
     1
 10
293.722699941
 20
115.931144855
 30
0.0
 11
295.922699941
 21
115.931144855
 31
0.0
  0
LINE
  8
0
  6
CONTINUOUS
 62
     1
 10
287.772699941
 20
121.531144855
 30
0.0
 11
287.772699941
 21
123.031144855
 31
0.0
  0
LINE
  8
0
  6
CONTINUOUS
 62
     1
 10
287.772699941
 20
123.031144855
 30
0.0
 11
292.472699941
 21
123.031144855
 31
0.0
  0
LINE
  8
0
  6
CONTINUOUS
 62
     1
 10
292.472699941
 20
123.031144855
 30
0.0
 11
292.472699941
 21
121.531144855
 31
0.0
  0
TEXT
  8
0
  6
CONTINUOUS
 62
     1
 10
287.072699941
 20
123.931144855
 30
-0.2
 40
1.7
  1
ＡＣ　ＩＮ
 50
0.0
 41
0.823529412
 51
0.0
  7
KANJI7
  0
LINE
  8
0
  6
CONTINUOUS
 62
     1
 10
287.772699941
 20
114.681144855
 30
0.0
 11
287.255061851
 21
112.749293203
 31
0.0
  0
LINE
  8
0
  6
CONTINUOUS
 62
     1
 10
287.772699941
 20
114.681144855
 30
0.0
 11
288.290338031
 21
112.749293203
 31
0.0
  0
LINE
  8
0
  6
CONTINUOUS
 62
     1
 10
292.472699941
 20
114.681144855
 30
0.0
 11
291.955061851
 21
112.749293203
 31
0.0
  0
LINE
  8
0
  6
CONTINUOUS
 62
     1
 10
292.472699941
 20
114.681144855
 30
0.0
 11
292.990338031
 21
112.749293203
 31
0.0
  0
LINE
  8
0
  6
CONTINUOUS
 62
     1
 10
297.172699941
 20
114.681144855
 30
0.0
 11
296.655061851
 21
112.749293203
 31
0.0
  0
LINE
  8
0
  6
CONTINUOUS
 62
     1
 10
297.172699941
 20
114.681144855
 30
0.0
 11
297.690338031
 21
112.749293203
 31
0.0
  0
LINE
  8
0
  6
CONTINUOUS
 62
     1
 10
297.172699941
 20
114.681144855
 30
0.0
 11
297.172699941
 21
107.681144855
 31
0.0
  0
LINE
  8
0
  6
CONTINUOUS
 62
     1
 10
287.772699941
 20
114.681144855
 30
0.0
 11
287.772699941
 21
102.431144855
 31
0.0
  0
LINE
  8
0
  6
CONTINUOUS
 62
     1
 10
292.472699941
 20
114.681144855
 30
0.0
 11
292.472699941
 21
102.431144855
 31
0.0
  0
LINE
  8
0
  6
CONTINUOUS
 62
     1
 10
296.422699941
 20
107.681144855
 30
0.0
 11
297.922699941
 21
107.681144855
 31
0.0
  0
LINE
  8
0
  6
CONTINUOUS
 62
     1
 10
296.572699941
 20
107.381144855
 30
0.0
 11
297.772699941
 21
107.381144855
 31
0.0
  0
LINE
  8
0
  6
CONTINUOUS
 62
     1
 10
296.797699941
 20
107.081144855
 30
0.0
 11
297.547699941
 21
107.081144855
 31
0.0
  0
TEXT
  8
0
  6
CONTINUOUS
 62
     1
 10
288.172699941
 20
128.881144855
 30
0.0
 40
1.7
  1
電源の配線
 50
0.0
 41
0.941176471
 51
0.0
  7
KANJI8
  0
TEXT
  8
0
  6
CONTINUOUS
 62
     1
 10
288.572699941
 20
99.581144855
 30
0.0
 40
1.7
  1
電源
 50
0.0
 41
0.941176471
 51
0.0
  7
KANJI8
  0
TEXT
  8
0
  6
CONTINUOUS
 62
     1
 10
295.872699941
 20
99.581144855
 30
0.0
 40
1.7
  1
接地
 50
0.0
 41
0.941176471
 51
0.0
  7
KANJI8
  0
CIRCLE
  8
0
  6
CONTINUOUS
 62
     1
 10
336.772699941
 20
128.631144855
 30
0.0
 40
1.0
  0
CIRCLE
  8
0
  6
CONTINUOUS
 62
     1
 10
336.772699941
 20
128.631144855
 30
0.0
 40
1.25
  0
LINE
  8
0
  6
CONTINUOUS
 62
     1
 10
336.772699941
 20
129.881144855
 30
0.0
 11
336.772699941
 21
132.181144855
 31
0.0
  0
LINE
  8
0
  6
CONTINUOUS
 62
     1
 10
336.772699941
 20
125.181144855
 30
0.0
 11
336.772699941
 21
127.381144855
 31
0.0
  0
CIRCLE
  8
0
  6
CONTINUOUS
 62
     1
 10
336.772699941
 20
123.931144855
 30
0.0
 40
1.0
  0
CIRCLE
  8
0
  6
CONTINUOUS
 62
     1
 10
336.772699941
 20
123.931144855
 30
0.0
 40
1.25
  0
LINE
  8
0
  6
CONTINUOUS
 62
     1
 10
336.772699941
 20
120.481144855
 30
0.0
 11
336.772699941
 21
122.681144855
 31
0.0
  0
LINE
  8
0
  6
CONTINUOUS
 62
     1
 10
335.522699941
 20
128.631144855
 30
0.0
 11
323.372699941
 21
128.631144855
 31
0.0
  0
LINE
  8
0
  6
CONTINUOUS
 62
     1
 10
323.372699941
 20
123.931144855
 30
0.0
 11
335.522699941
 21
123.931144855
 31
0.0
  0
POLYLINE
  8
0
  6
CONTINUOUS
 62
     1
 66
     1
 70
     1
  0
VERTEX
  8
0
  6
CONTINUOUS
 62
     1
 10
322.372699941
 20
126.581144855
 30
0.0
  0
VERTEX
  8
0
  6
CONTINUOUS
 62
     1
 10
324.372699941
 20
126.581144855
 30
0.0
  0
SEQEND
  0
LINE
  8
0
  6
CONTINUOUS
 62
     1
 10
323.372699941
 20
125.981144855
 30
0.0
 11
323.372699941
 21
123.931144855
 31
0.0
  0
LINE
  8
0
  6
CONTINUOUS
 62
     1
 10
323.372699941
 20
128.631144855
 30
0.0
 11
323.372699941
 21
126.581144855
 31
0.0
  0
LINE
  8
0
  6
CONTINUOUS
 62
     1
 10
323.972699941
 20
125.981144855
 30
0.0
 11
322.672699941
 21
125.981144855
 31
0.0
  0
LINE
  8
0
  6
CONTINUOUS
 62
     1
 10
322.872699941
 20
125.981144855
 30
0.0
 11
324.072699941
 21
125.981144855
 31
0.0
  0
ARC
  8
0
  6
CONTINUOUS
 62
     2
 10
331.9
 20
128.9
 30
0.0
 40
0.6
 50
0.0
 51
180.0
  0
ARC
  8
0
  6
CONTINUOUS
 62
     2
 10
331.9
 20
123.66228971
 30
0.0
 40
0.6
 50
180.0
 51
0.0
  0
LINE
  8
0
  6
CONTINUOUS
 62
     2
 10
331.3
 20
128.9
 30
0.0
 11
331.3
 21
123.66228971
 31
0.0
  0
LINE
  8
0
  6
CONTINUOUS
 62
     2
 10
332.5
 20
128.9
 30
0.0
 11
332.5
 21
128.66228971
 31
0.0
  0
LINE
  8
0
  6
CONTINUOUS
 62
     2
 10
332.5
 20
123.86228971
 30
0.0
 11
332.5
 21
123.66228971
 31
0.0
  0
LINE
  8
0
  6
CONTINUOUS
 62
     2
 10
332.5
 20
128.46228971
 30
0.0
 11
332.5
 21
124.06228971
 31
0.0
  0
LINE
  8
0
  6
CONTINUOUS
 62
     1
 10
331.9
 20
123.06228971
 30
0.0
 11
331.9
 21
121.06228971
 31
0.0
  0
LINE
  8
0
  6
CONTINUOUS
 62
     1
 10
331.5
 20
121.06228971
 30
0.0
 11
332.3
 21
121.06228971
 31
0.0
  0
LINE
  8
0
  6
CONTINUOUS
 62
     1
 10
332.2
 20
120.86228971
 30
0.0
 11
331.6
 21
120.86228971
 31
0.0
  0
LINE
  8
0
  6
CONTINUOUS
 62
     1
 10
331.7
 20
120.66228971
 30
0.0
 11
332.1
 21
120.66228971
 31
0.0
  0
TEXT
  8
0
  6
CONTINUOUS
 62
     1
 10
311.4
 20
125.36228971
 30
0.0
 40
1.7
  1
ｍＶ、Ｖ入力
 50
0.0
 41
0.941176471
 51
0.0
  7
KANJI8
  0
TEXT
  8
0
  6
CONTINUOUS
 62
     1
 10
339.3
 20
127.86228971
 30
0.0
 40
1.7
  1
＋
 50
0.0
 41
0.941176471
 51
0.0
  7
KANJI8
  0
TEXT
  8
0
  6
CONTINUOUS
 62
     1
 10
339.3
 20
122.86228971
 30
0.0
 40
1.7
  1
－
 50
0.0
 41
0.941176471
 51
0.0
  7
KANJI8
  0
CIRCLE
  8
0
  6
CONTINUOUS
 62
     1
 10
336.772699941
 20
114.931144855
 30
0.0
 40
1.0
  0
CIRCLE
  8
0
  6
CONTINUOUS
 62
     1
 10
336.772699941
 20
114.931144855
 30
0.0
 40
1.25
  0
LINE
  8
0
  6
CONTINUOUS
 62
     1
 10
336.772699941
 20
116.181144855
 30
0.0
 11
336.772699941
 21
118.481144855
 31
0.0
  0
LINE
  8
0
  6
CONTINUOUS
 62
     1
 10
336.772699941
 20
111.481144855
 30
0.0
 11
336.772699941
 21
113.681144855
 31
0.0
  0
CIRCLE
  8
0
  6
CONTINUOUS
 62
     1
 10
336.772699941
 20
110.231144855
 30
0.0
 40
1.0
  0
CIRCLE
  8
0
  6
CONTINUOUS
 62
     1
 10
336.772699941
 20
110.231144855
 30
0.0
 40
1.25
  0
LINE
  8
0
  6
CONTINUOUS
 62
     1
 10
336.772699941
 20
106.781144855
 30
0.0
 11
336.772699941
 21
108.981144855
 31
0.0
  0
ARC
  8
0
  6
CONTINUOUS
 62
     2
 10
331.9
 20
115.2
 30
0.0
 40
0.6
 50
0.0
 51
180.0
  0
ARC
  8
0
  6
CONTINUOUS
 62
     2
 10
331.9
 20
109.96228971
 30
0.0
 40
0.6
 50
180.0
 51
0.0
  0
LINE
  8
0
  6
CONTINUOUS
 62
     2
 10
331.3
 20
115.2
 30
0.0
 11
331.3
 21
109.96228971
 31
0.0
  0
LINE
  8
0
  6
CONTINUOUS
 62
     2
 10
332.5
 20
115.2
 30
0.0
 11
332.5
 21
114.96228971
 31
0.0
  0
LINE
  8
0
  6
CONTINUOUS
 62
     2
 10
332.5
 20
110.16228971
 30
0.0
 11
332.5
 21
109.96228971
 31
0.0
  0
LINE
  8
0
  6
CONTINUOUS
 62
     2
 10
332.5
 20
114.76228971
 30
0.0
 11
332.5
 21
110.36228971
 31
0.0
  0
LINE
  8
0
  6
CONTINUOUS
 62
     1
 10
331.9
 20
109.36228971
 30
0.0
 11
331.9
 21
107.36228971
 31
0.0
  0
LINE
  8
0
  6
CONTINUOUS
 62
     1
 10
331.5
 20
107.36228971
 30
0.0
 11
332.3
 21
107.36228971
 31
0.0
  0
LINE
  8
0
  6
CONTINUOUS
 62
     1
 10
332.2
 20
107.16228971
 30
0.0
 11
331.6
 21
107.16228971
 31
0.0
  0
LINE
  8
0
  6
CONTINUOUS
 62
     1
 10
331.7
 20
106.96228971
 30
0.0
 11
332.1
 21
106.96228971
 31
0.0
  0
TEXT
  8
0
  6
CONTINUOUS
 62
     1
 10
311.4
 20
111.66228971
 30
0.0
 40
1.7
  1
熱電対入力
 50
0.0
 41
0.941176471
 51
0.0
  7
KANJI8
  0
TEXT
  8
0
  6
CONTINUOUS
 62
     1
 10
339.3
 20
114.16228971
 30
0.0
 40
1.7
  1
＋
 50
0.0
 41
0.941176471
 51
0.0
  7
KANJI8
  0
TEXT
  8
0
  6
CONTINUOUS
 62
     1
 10
339.3
 20
109.16228971
 30
0.0
 40
1.7
  1
－
 50
0.0
 41
0.941176471
 51
0.0
  7
KANJI8
  0
LINE
  8
0
  6
CONTINUOUS
 62
     1
 10
335.522699941
 20
114.931144855
 30
0.0
 11
325.347699941
 21
114.931144855
 31
0.0
  0
LINE
  8
0
  6
CONTINUOUS
 62
     1
 10
325.347699941
 20
110.231144855
 30
0.0
 11
335.522699941
 21
110.231144855
 31
0.0
  0
LINE
  8
0
  6
CONTINUOUS
 62
     1
 10
325.347699941
 20
114.931144855
 30
0.0
 11
322.272699941
 21
112.581144855
 31
0.0
  0
LINE
  8
0
  6
CONTINUOUS
 62
     1
 10
322.272699941
 20
112.581144855
 30
0.0
 11
325.347699941
 21
110.231144855
 31
0.0
  0
CIRCLE
  8
0
  6
CONTINUOUS
 62
     1
 10
322.272699941
 20
112.581144855
 30
0.0
 40
0.15
  0
CIRCLE
  8
0
  6
CONTINUOUS
 62
     1
 10
322.272699941
 20
112.581144855
 30
0.0
 40
0.3
  0
CIRCLE
  8
0
  6
CONTINUOUS
 62
     1
 10
322.272699941
 20
112.581144855
 30
0.0
 40
0.45
  0
CIRCLE
  8
0
  6
CONTINUOUS
 62
     1
 10
336.772699941
 20
100.631144855
 30
0.0
 40
1.0
  0
CIRCLE
  8
0
  6
CONTINUOUS
 62
     1
 10
336.772699941
 20
100.631144855
 30
0.0
 40
1.25
  0
LINE
  8
0
  6
CONTINUOUS
 62
     1
 10
336.772699941
 20
101.881144855
 30
0.0
 11
336.772699941
 21
104.181144855
 31
0.0
  0
LINE
  8
0
  6
CONTINUOUS
 62
     1
 10
336.772699941
 20
97.181144855
 30
0.0
 11
336.772699941
 21
99.381144855
 31
0.0
  0
CIRCLE
  8
0
  6
CONTINUOUS
 62
     1
 10
336.772699941
 20
95.931144855
 30
0.0
 40
1.0
  0
CIRCLE
  8
0
  6
CONTINUOUS
 62
     1
 10
336.772699941
 20
95.931144855
 30
0.0
 40
1.25
  0
LINE
  8
0
  6
CONTINUOUS
 62
     1
 10
336.772699941
 20
92.481144855
 30
0.0
 11
336.772699941
 21
94.681144855
 31
0.0
  0
LINE
  8
0
  6
CONTINUOUS
 62
     1
 10
335.522699941
 20
100.631144855
 30
0.0
 11
323.372699941
 21
100.631144855
 31
0.0
  0
ARC
  8
0
  6
CONTINUOUS
 62
     2
 10
331.9
 20
100.9
 30
0.0
 40
0.6
 50
0.0
 51
180.0
  0
ARC
  8
0
  6
CONTINUOUS
 62
     2
 10
331.9
 20
95.66228971
 30
0.0
 40
0.6
 50
180.0
 51
0.0
  0
LINE
  8
0
  6
CONTINUOUS
 62
     2
 10
331.3
 20
100.9
 30
0.0
 11
331.3
 21
95.66228971
 31
0.0
  0
LINE
  8
0
  6
CONTINUOUS
 62
     2
 10
332.5
 20
100.9
 30
0.0
 11
332.5
 21
100.66228971
 31
0.0
  0
LINE
  8
0
  6
CONTINUOUS
 62
     2
 10
332.5
 20
95.86228971
 30
0.0
 11
332.5
 21
95.66228971
 31
0.0
  0
LINE
  8
0
  6
CONTINUOUS
 62
     2
 10
332.5
 20
100.46228971
 30
0.0
 11
332.5
 21
96.06228971
 31
0.0
  0
LINE
  8
0
  6
CONTINUOUS
 62
     1
 10
331.9
 20
95.06228971
 30
0.0
 11
331.9
 21
93.06228971
 31
0.0
  0
LINE
  8
0
  6
CONTINUOUS
 62
     1
 10
331.5
 20
93.06228971
 30
0.0
 11
332.3
 21
93.06228971
 31
0.0
  0
LINE
  8
0
  6
CONTINUOUS
 62
     1
 10
332.2
 20
92.86228971
 30
0.0
 11
331.6
 21
92.86228971
 31
0.0
  0
LINE
  8
0
  6
CONTINUOUS
 62
     1
 10
331.7
 20
92.66228971
 30
0.0
 11
332.1
 21
92.66228971
 31
0.0
  0
TEXT
  8
0
  6
CONTINUOUS
 62
     1
 10
339.3
 20
99.86228971
 30
0.0
 40
1.7
  1
＋
 50
0.0
 41
0.941176471
 51
0.0
  7
KANJI8
  0
TEXT
  8
0
  6
CONTINUOUS
 62
     1
 10
339.3
 20
94.86228971
 30
0.0
 40
1.7
  1
－
 50
0.0
 41
0.941176471
 51
0.0
  7
KANJI8
  0
TEXT
  8
0
  6
CONTINUOUS
 62
     1
 10
311.4
 20
97.36228971
 30
0.0
 40
1.7
  1
ｍＡ入力
 50
0.0
 41
0.941176471
 51
0.0
  7
KANJI8
  0
POLYLINE
  8
0
  6
CONTINUOUS
 62
     1
 66
     1
  0
VERTEX
  8
0
  6
CONTINUOUS
 62
     1
 10
323.372699941
 20
100.631144855
 30
0.0
  0
VERTEX
  8
0
  6
CONTINUOUS
 62
     1
 10
323.372699941
 20
95.931144855
 30
0.0
  0
VERTEX
  8
0
  6
CONTINUOUS
 62
     1
 10
335.522699941
 20
95.931144855
 30
0.0
  0
SEQEND
  0
CIRCLE
  8
0
  6
CONTINUOUS
 62
     1
 10
323.372699941
 20
98.281144855
 30
0.0
 40
0.75
  0
TEXT
  8
0
  6
CONTINUOUS
 62
     1
 10
325.972699941
 20
115.381144855
 30
0.0
 40
1.7
  1
＋
 50
0.0
 41
0.941176471
 51
0.0
  7
KANJI8
  0
TEXT
  8
0
  6
CONTINUOUS
 62
     1
 10
325.972699941
 20
110.781144855
 30
0.0
 40
1.7
  1
－
 50
0.0
 41
0.941176471
 51
0.0
  7
KANJI8
  0
LINE
  8
0
  6
CONTINUOUS
 62
     1
 10
343.272699941
 20
95.481144855
 30
0.0
 11
342.772699941
 21
95.281144855
 31
0.0
  0
LINE
  8
0
  6
CONTINUOUS
 62
     1
 10
342.772699941
 20
95.281144855
 30
0.0
 11
343.772699941
 21
94.881144855
 31
0.0
  0
LINE
  8
0
  6
CONTINUOUS
 62
     1
 10
343.772699941
 20
94.881144855
 30
0.0
 11
342.772699941
 21
94.481144855
 31
0.0
  0
LINE
  8
0
  6
CONTINUOUS
 62
     1
 10
342.772699941
 20
94.481144855
 30
0.0
 11
343.772699941
 21
94.081144855
 31
0.0
  0
LINE
  8
0
  6
CONTINUOUS
 62
     1
 10
343.772699941
 20
94.081144855
 30
0.0
 11
342.772699941
 21
93.681144855
 31
0.0
  0
LINE
  8
0
  6
CONTINUOUS
 62
     1
 10
342.772699941
 20
93.681144855
 30
0.0
 11
343.272699941
 21
93.481144855
 31
0.0
  0
LINE
  8
0
  6
CONTINUOUS
 62
     1
 10
343.272699941
 20
96.781144855
 30
0.0
 11
343.272699941
 21
95.481144855
 31
0.0
  0
LINE
  8
0
  6
CONTINUOUS
 62
     1
 10
337.872699941
 20
100.081144855
 30
0.0
 11
343.272699941
 21
96.781144855
 31
0.0
  0
LINE
  8
0
  6
CONTINUOUS
 62
     1
 10
343.272699941
 20
93.481144855
 30
0.0
 11
343.272699941
 21
92.081144855
 31
0.0
  0
LINE
  8
0
  6
CONTINUOUS
 62
     1
 10
337.872699941
 20
95.381144855
 30
0.0
 11
343.272699941
 21
92.081144855
 31
0.0
  0
TEXT
  8
0
  6
CONTINUOUS
 62
     1
 10
344.272699941
 20
94.831144855
 30
0.0
 40
1.7
  1
Ｒ：２５０Ω
 50
0.0
 41
0.941176471
 51
0.0
  7
KANJI8
  0
TEXT
  8
0
  6
CONTINUOUS
 62
     1
 10
344.272699941
 20
91.831144855
 30
0.0
 40
1.7
  1
シャント抵抗
 50
0.0
 41
0.941176471
 51
0.0
  7
KANJI8
  0
TEXT
  8
0
  6
CONTINUOUS
 62
     1
 10
343.872699941
 20
89.631144855
 30
0.0
 40
1.7
  1
（端子台取付）
 50
0.0
 41
0.941176471
 51
0.0
  7
KANJI8
  0
CIRCLE
  8
0
  6
CONTINUOUS
 62
     1
 10
336.772699941
 20
86.331144855
 30
0.0
 40
1.0
  0
CIRCLE
  8
0
  6
CONTINUOUS
 62
     1
 10
336.772699941
 20
86.331144855
 30
0.0
 40
1.25
  0
LINE
  8
0
  6
CONTINUOUS
 62
     1
 10
336.772699941
 20
87.581144855
 30
0.0
 11
336.772699941
 21
89.881144855
 31
0.0
  0
LINE
  8
0
  6
CONTINUOUS
 62
     1
 10
335.522699941
 20
86.331144855
 30
0.0
 11
323.372699941
 21
86.331144855
 31
0.0
  0
ARC
  8
0
  6
CONTINUOUS
 62
     2
 10
331.9
 20
86.6
 30
0.0
 40
0.6
 50
0.0
 51
180.0
  0
LINE
  8
0
  6
CONTINUOUS
 62
     2
 10
332.5
 20
86.6
 30
0.0
 11
332.5
 21
86.36228971
 31
0.0
  0
CIRCLE
  8
0
  6
CONTINUOUS
 62
     1
 10
336.772699941
 20
76.931144855
 30
0.0
 40
1.0
  0
CIRCLE
  8
0
  6
CONTINUOUS
 62
     1
 10
336.772699941
 20
76.931144855
 30
0.0
 40
1.25
  0
LINE
  8
0
  6
CONTINUOUS
 62
     1
 10
336.772699941
 20
73.481144855
 30
0.0
 11
336.772699941
 21
75.681144855
 31
0.0
  0
ARC
  8
0
  6
CONTINUOUS
 62
     2
 10
331.9
 20
76.66228971
 30
0.0
 40
0.6
 50
180.0
 51
0.0
  0
LINE
  8
0
  6
CONTINUOUS
 62
     2
 10
331.3
 20
86.6
 30
0.0
 11
331.3
 21
76.66228971
 31
0.0
  0
LINE
  8
0
  6
CONTINUOUS
 62
     2
 10
332.5
 20
76.86228971
 30
0.0
 11
332.5
 21
76.66228971
 31
0.0
  0
LINE
  8
0
  6
CONTINUOUS
 62
     2
 10
332.5
 20
86.16228971
 30
0.0
 11
332.5
 21
77.06228971
 31
0.0
  0
LINE
  8
0
  6
CONTINUOUS
 62
     1
 10
331.9
 20
76.06228971
 30
0.0
 11
331.9
 21
74.06228971
 31
0.0
  0
LINE
  8
0
  6
CONTINUOUS
 62
     1
 10
331.5
 20
74.06228971
 30
0.0
 11
332.3
 21
74.06228971
 31
0.0
  0
LINE
  8
0
  6
CONTINUOUS
 62
     1
 10
332.2
 20
73.86228971
 30
0.0
 11
331.6
 21
73.86228971
 31
0.0
  0
LINE
  8
0
  6
CONTINUOUS
 62
     1
 10
331.7
 20
73.66228971
 30
0.0
 11
332.1
 21
73.66228971
 31
0.0
  0
CIRCLE
  8
0
  6
CONTINUOUS
 62
     1
 10
336.772699941
 20
81.631144855
 30
0.0
 40
1.0
  0
CIRCLE
  8
0
  6
CONTINUOUS
 62
     1
 10
336.772699941
 20
81.631144855
 30
0.0
 40
1.25
  0
LINE
  8
0
  6
CONTINUOUS
 62
     1
 10
336.772699941
 20
82.881144855
 30
0.0
 11
336.772699941
 21
85.081144855
 31
0.0
  0
LINE
  8
0
  6
CONTINUOUS
 62
     1
 10
336.772699941
 20
78.181144855
 30
0.0
 11
336.772699941
 21
80.381144855
 31
0.0
  0
LINE
  8
0
  6
CONTINUOUS
 62
     1
 10
335.522699941
 20
81.631144855
 30
0.0
 11
323.372699941
 21
81.631144855
 31
0.0
  0
LINE
  8
0
  6
CONTINUOUS
 62
     1
 10
323.372699941
 20
84.981144855
 30
0.0
 11
322.872699941
 21
84.781144855
 31
0.0
  0
LINE
  8
0
  6
CONTINUOUS
 62
     1
 10
322.872699941
 20
84.781144855
 30
0.0
 11
323.872699941
 21
84.381144855
 31
0.0
  0
LINE
  8
0
  6
CONTINUOUS
 62
     1
 10
323.872699941
 20
84.381144855
 30
0.0
 11
322.872699941
 21
83.981144855
 31
0.0
  0
LINE
  8
0
  6
CONTINUOUS
 62
     1
 10
322.872699941
 20
83.981144855
 30
0.0
 11
323.872699941
 21
83.581144855
 31
0.0
  0
LINE
  8
0
  6
CONTINUOUS
 62
     1
 10
323.872699941
 20
83.581144855
 30
0.0
 11
322.872699941
 21
83.181144855
 31
0.0
  0
LINE
  8
0
  6
CONTINUOUS
 62
     1
 10
322.872699941
 20
83.181144855
 30
0.0
 11
323.372699941
 21
82.981144855
 31
0.0
  0
LINE
  8
0
  6
CONTINUOUS
 62
     1
 10
323.372699941
 20
86.281144855
 30
0.0
 11
323.372699941
 21
84.981144855
 31
0.0
  0
LINE
  8
0
  6
CONTINUOUS
 62
     1
 10
323.372699941
 20
82.981144855
 30
0.0
 11
323.372699941
 21
81.581144855
 31
0.0
  0
LINE
  8
0
  6
CONTINUOUS
 62
     1
 10
326.506033274
 20
76.931144855
 30
0.0
 11
335.522699941
 21
76.931144855
 31
0.0
  0
LINE
  8
0
  6
CONTINUOUS
 62
     1
 10
323.372699941
 20
81.631144855
 30
0.0
 11
326.506033274
 21
76.931144855
 31
0.0
  0
TEXT
  8
0
  6
CONTINUOUS
 62
     1
 10
311.4
 20
80.96228971
 30
0.0
 40
1.7
  1
測温抵抗体
 50
0.0
 41
0.941176471
 51
0.0
  7
KANJI8
  0
TEXT
  8
0
  6
CONTINUOUS
 62
     1
 10
339.3
 20
85.56228971
 30
0.0
 40
1.7
  1
Ａ
 50
0.0
 41
0.941176471
 51
0.0
  7
KANJI8
  0
TEXT
  8
0
  6
CONTINUOUS
 62
     1
 10
339.3
 20
80.86228971
 30
0.0
 40
1.7
  1
Ｂ
 50
0.0
 41
0.941176471
 51
0.0
  7
KANJI8
  0
TEXT
  8
0
  6
CONTINUOUS
 62
     1
 10
339.3
 20
76.16228971
 30
0.0
 40
1.7
  1
Ｂ
 50
0.0
 41
0.941176471
 51
0.0
  7
KANJI8
  0
TEXT
  8
0
  6
CONTINUOUS
 62
     1
 10
325.772699941
 20
134.531144855
 30
0.0
 40
1.7
  1
入力の配線
 50
0.0
 41
0.941176471
 51
0.0
  7
KANJI8
  0
ENDSEC
  0
EOF
